Oops, an error
Loading. Please wait.

5 Segundos tab

by Puerco
7 views 1 this week
no commentswrite comment
1 2 3 4 5
3 more votes to show rating
add to favorites
×
Save as Personal and add changes to this tab that will be seen only by you. Learn more ›
×
You can save this tab as Personal to edit and correct it or add notes. All changes will be seen only by you. Learn more »
launch autoscroll
font size
0
reset
how to read this tab
guitar tuner
edit
Autoscroll
slow
fast
+/-
esc
set tempo
stop
5  SEGUNDOS


INTRO
X2
e----------------------------------------------------+
B----------------------------------------------------+
G---66--66--86---66--66--86--66--66--86--665--535----+
D----------------------------------------------------+
A----------------------------------------------------+
E----------------------------------------------------+

VERSO 1
C#             F
ESTA CANCION ES DEDICADA PARA TI
A#                  F#               G#
AUNQUE AL PRINCIPIO FUE PENSADA PARA MI
C#                      F
O YA NO SE SI ES AL REVES
A#                       F#      G#
PERO PODRIA VIVIR CADA 5 SEGUNDOS


PUENTE
C#                F#      F        D#     C#
PARA RECORDARME LO QUE NO DEBO REPETIR
C#
PARA ESTAR CONCIENTE
F#          F          D#
NO TE DEBO DE HACER SUFRIR


INTRO (X2)

VERSO 2
C#                F
COMO LOS CHANEKES LOS SENTIMIENTOS AQUI ESTAN
A#              F#                        G#
NO SE VEN PERO EXISTEN Y ASI NO SE PUEDEN MATAR


PUENTE
C#                 F#        F        D#      C#
COMO UN ACCIDENTE CON MUERTOS EN EL ESTOMAGO
C#                 F#        F        D#
COMO UN PARTO CON PUERCOS EN MI ESTOMAGO


 C#                   F
e------------------------------------+
B------------------------------------+
G------------------------------------+
D---6-6-----3-4-3----3-3-------------+
A---4-4---4----------3-3-------------+
E--------------------1-1-------------+


  C#             A#
e-----------------------------------+
B-----------------------------------+
G---------------3-3-----------------+
D-----3-4-3-----3-3-----------------+
A---4-----------1-1-----------------+
E-----------------------------------+


C#            F#   G#
e----------------------------+
B----------------------------+
G----------------------------+
D-----3-4-3---4----6---------+
A---4---------4----6---------+
E-------------2----4---------+


CORO
F#          G#
CINCO SEGUNDOS
F            A#
PARA HACERTE REIR
F#              G#
CIEGO PODRIDO,  MUDO ENTUMECIDO
F              A#
PERO AUN ESTOY AQUI

VERSO 1

CORO

            
            
Suggest correction
Creating personal tab
Creating personal tab
You can edit any tab online and save it as your Personal.

You can edit, replace or remove any tab part or add personal notes – all changes will be seen only by you.

Personal tabs can be accessed anytime from any device, even offline.
Learn more »
Give kudos to tab author, rate the tab!
1 2 3 4 5
comments
print report bad tab
guest
Wanna post a correction for this tab? Suggest correction