Oops, an error
Loading. Please wait.

Cual Es bass

34 views 3 this week
no commentswrite comment
1 2 3 4 5
3 more votes to show rating
add to favorites
×
Save as Personal and add changes to this tab that will be seen only by you. Learn more ›
×
You can save this tab as Personal to edit and correct it or add notes. All changes will be seen only by you. Learn more »
launch autoscroll
font size
0
reset
guitar tuner
edit
Autoscroll
slow
fast
+/-
esc
set tempo
stop
Hola de nuevo y en especial a las personas que me siguen en el ATAME
Muchas Gracias!!!!!!!!!

Bueno ahi les va la rola de puerto....
Primero toca la guitarra....

:Intro:

G]:---------------:--------------:
D]:---------------:--------------:
A]:---------------:--------------:
E]:-0-0--3-5-6-5-3:0-0-----------:

:Estrofa 1:

Cual es la onda ...?

G]:---------------:--------------:---------------:-------------:
D]:---------------:--------------:---------------:-------------:
A]:---------------:--------------:---------------:-------------:
E]:-0-0--3-5-6-5-3:0-0-----------:-0-0--3-5-6-5-3:0------------:

Cual es la causa ...?

G]:---------------:--------------:---------------:
D]:---------------:--------------:---------------:
A]:---------------:--------------:---------------:
E]:-0-0--3-5-6-5-3:0-0-----------:-7-7-7-6-5--3-0:

:Estrofa 2:

Cual es la ruta que ...?

G]:---------------:-----9-9-9----:---------------:-------------------:
D]:---------------:-----------9--:---------------:-----------5-------:
A]:---------------:------------7-:---------------:-------7-7---7-5-7-:
E]:-0-0--3-5-6-5-3:0-0-----------:-0-0--3-5-6-5-3:0-0----------------:

Cual es la vida que te ...?

G]:---------------:-------9-9----:---------------:-------------------:
D]:---------------:----------9-7-:---------------:-------------------:
A]:---------------:--------------:0-0-0-0-0--0-0-:2-2-2-2-2-2-2-2-2-2:
E]:-0-0--3-5-6-5-3:0-0-----------:---------------:-------------------:

:Coro:

Por que no va mas ...

G]:---------------:--------------:---------------:---------------:
D]:---------------:--------------:---------------:---------------:
A]:3-3-3-3-3-3-3-3:5-5-5-5-5-5-5-:---------------:---------------:
E]:---------------:--------------:-5---4-5-4-5-4-:5---4-5-4-5-4-5:

Por que no va mas ...

G]:---------------:--------------:---------------:---------------:
D]:---------------:--------------:---------------:---------------:
A]:3-3-3-3-3-3-3-3:5-5-5-5-5-5-5-:---------------:---------------:
E]:---------------:--------------:-5--4-5-4-5-4-5:7-7-7-7-7-7-7-7:

:Intro:
:Estrofas:
:Coro:
:Linea del Bass antes del slapping:

Por que no va mas ...

G]:---------------:--------------:---------------:---------------:
D]:---------------:--------------:---------------:---------------:
A]:3-3-3-3-3-3-3-3:5-5-5-5-5-5-5-:---------------:---------------:
E]:---------------:--------------:-5---4-5-4-5-4-:7-7-7-7-7-7-7-7:

G]:---------------:
D]:---------------:
A]:7-7-7-----6-5-3:
E]:---------------:

:Slapping Bass:  h = hammered

G]:---------------:--------------:---------------:-------9h--9h--:
D]:---------------:--------2h--2h:---------------:---------------:
A]:---------------:--------------:---------------:---------------:
E]:0-0--0-0-0-0-0-:0-0-0-0-------:0-0-0-0-0-0-0-0:0-0-0-0--------:

:Solo de Guitarra:
:Coro:
:Frase-'Por que no hay nada que perder':

G]:---------------:---------------:
D]:---------------:---------------:
A]:3-3-3-3-3-3-3-3:5--4-5-4-5-5-5-:
E]:---------------:---------------:

:Coro:
:Intro:


Bueno espero que les guste esta tablatura!!!! toquenla con ganas ok?
disculpen si el slapping no esta tan igual como la cancion pero las cuerdas que jala son las
que he escrito ok?
bueno un saludo a toda los fanaticos de Puerto Seguro!!!!!!
Good Bye!!!!
QDTBM

            
            
Suggest correction
Creating personal tab
Creating personal tab
You can edit any tab online and save it as your Personal.

You can edit, replace or remove any tab part or add personal notes – all changes will be seen only by you.

Personal tabs can be accessed anytime from any device, even offline.
Learn more »
Give kudos to tab author, rate the tab!
1 2 3 4 5
comments
print report bad tab
guest
Wanna post a correction for this tab? Suggest correction