Oops, an error
Loading. Please wait.

Lado Bueno tab

9 views 3 this week
no commentswrite comment
1 2 3 4 5
3 more votes to show rating
add to favorites
×
Save as Personal and add changes to this tab that will be seen only by you. Learn more ›
×
You can save this tab as Personal to edit and correct it or add notes. All changes will be seen only by you. Learn more »
launch autoscroll
font size
0
reset
how to read this tab
guitar tuner
edit
Autoscroll
slow
fast
+/-
esc
set tempo
stop
INTRO: ///E - A - E - A - A# - A - G///
E] :-------------------------------------------------------
B] :-------------------------------------------------------
G] :-------------------------------------------------------
D] :-------------------------------------------------------
A] :---------------------------------4-5-4-----------------
E] :--0-55-3-0--55--6-5-3--0-55-3-0------------------------

E] :-------------------------------------------------------
B] :-------------------------------------------------------
G] :-------------------------------------------------------
D] :-------------------------------------------------------
A] :-------------------------------------------------------
E] :--00-55-3-0--55--6-5-3--00-55-3-0----------------------

G                 D/F#
Creo que muchas veces
            Am               Em
Nos acostumbramos de una manera
 C             G/B
Revolver el pasado
           Am              D
No me garantiza la mejor idea.

Es mejor ir de frente
Y encarar con fe todo lo que venga
Para vencer el miedo
Y esperar lo bueno que ha de venir.

E] :-------------------------------------------------------
B] :-------------------------------------------------------
G] :-------------------------------------------------------
D] :-------------------------------------------------------
A] :---------------------------------4-5-4-----------------
E] :--0-55-3-0--55--6-5-3--0-55-3-0------------------------

E] :-------------------------------------------------------
B] :-------------------------------------------------------
G] :-------------------------------------------------------
D] :-------------------------------------------------------
A] :-------------------------------------------------------
E] :--00-55-3-0--55--6-5-3--00-55-3-0----------------------

 C                G/B
Voy cruzando fronteras
               Am    B7          Em
Esquivando el molde de los esquemas
C                  G/B
Me atrapo el compromiso,
             Am                 D
Es más importante llevar su bandera.

Mira el lado bueno
                Am  B7      Em       Em/D
Para que el mensaje no se detenga
Si Él está con nosotros
No hay circunstancia que nos pueda vencer.

INTRO + SOLO

Nunca voy a rendirme
Y enterrar lo bueno de las canciones
Siempre habrá alguna historia
Y una melodía a los corazones.

Es mejor ir de frente
Y ponerle el pecho a las situaciones
Si Dios va con nosotros
Ya no hacen falta mas explicaciones

Voy cruzando fronteras
Esquivando el molde de los esquemas
Me atrapo el compromiso,
Es más importante llevar su bandera.

Mira el lado bueno
Para que el mensaje no se detenga
Si Él está con nosotros
No hay circunstancia que nos pueda vencer.

Solo Guitarra.

Emm A - Emm A      G7 - C7 - G7 - C7
C - G/B - Am - B7 - Em - C - G/B - Am - D

 C              G/B
Mira el lado bueno
               Am    B7      Em       Em/D
Para que el mensaje no se detenga
   C             G/B
Si Él está con nosotros
              Am    D
No hay circunstancia que nos pueda vencer.

[E - A - E - A - A# - A - G] X8       E - A -  G - E - G - E

            
            
Suggest correction
Creating personal tab
Creating personal tab
You can edit any tab online and save it as your Personal.

You can edit, replace or remove any tab part or add personal notes – all changes will be seen only by you.

Personal tabs can be accessed anytime from any device, even offline.
Learn more »
Give kudos to tab author, rate the tab!
1 2 3 4 5
comments
print report bad tab
guest
Wanna post a correction for this tab? Suggest correction