Oops, an error
Loading. Please wait.

Me Estaba Acordando tab

23 views 1 this week
no commentswrite comment
1 2 3 4 5
3 more votes to show rating
add to favorites
×
Save as Personal and add changes to this tab that will be seen only by you. Learn more ›
×
You can save this tab as Personal to edit and correct it or add notes. All changes will be seen only by you. Learn more »
launch autoscroll
font size
0
reset
how to read this tab
guitar tuner
edit
Autoscroll
slow
fast
+/-
esc
set tempo
stop
 A     
Hoy me estaba acordando
               Bm        E
cuando me acerque a ti........ 


INSTRUMENTAL:
Riff 1.

     A    F#          Bm    Dm

-::----12----------12----10---------10-9----::-
-::--------------------------------------12-::-
-::--9----11-10-11----11----10-9-10---------::-
-::-----------------------------------------::-
-::-----------------------------------------::-
-::-----------------------------------------::-


     A    F#          Bm         F     E

-::----12----------12----10-9-------------::-----------::-
-::---------------------------12----------::-----------::-
-::--9----11-10-11----11---------10-12-9--::-----------::-
-::---------------------------------------::-----------::-
-::---------------------------------------::------0-2--::-
-::---------------------------------------::--0-2------::-


 A
Hoy me estaba acordando 
               Bm      
cuando me acerque a ti
E
eran días amargos 
       A       A  G  
de mí caminar.


 F#
Fue cuando no encontraba 
   Bm        Dm
Felicidad
A          F#
y todo lo que hacia 
    Bm         E
me daba igual.


 A                  
Fue pasando el tiempo 
         Bm
y me di cuenta que
 E
solo no podía 
         A           A  G
en este mundo cruel.


F#
Arrepentido 
        Bm            Dm
me acerque a tu amor
A             F#     
y con todo cariño
          Bm        E  
calmaste mi dolor.


             A         F#
A través de Tí comprendí 
               Bm               Dm
que todas las cosas tienen solución
          A 
y tomado de tu mano 
 F#                 Bm   E
voy al faro de tu amor.


             A       F#
A través de Tí conseguí
              Bm               Dm  
derribar los muros de mi depresión
            A              F#     
y sé que en este mundo, en este mundo
 Bm            E     A 
nada me separara de vos.


Nota: si tienes alguna duda de este tema o sugerencia 
de algún grupo cristiano que quieras que saque escríbeme.

            
            
Suggest correction
Creating personal tab
Creating personal tab
You can edit any tab online and save it as your Personal.

You can edit, replace or remove any tab part or add personal notes – all changes will be seen only by you.

Personal tabs can be accessed anytime from any device, even offline.
Learn more »
Give kudos to tab author, rate the tab!
1 2 3 4 5
comments
print report bad tab
guest
Wanna post a correction for this tab? Suggest correction