Oops, an error
Loading. Please wait.

Puerto Seguro chords

21 views 1 this week
no commentswrite comment
1 2 3 4 5
3 more votes to show rating
add to favorites
×
Save as Personal and add changes to this tab that will be seen only by you. Learn more ›
×
You can save this tab as Personal to edit and correct it or add notes. All changes will be seen only by you. Learn more »
launch autoscroll
font size
0
reset
transpose
0
reset
simplify chords
display chords
guitar tuner
edit
Autoscroll
slow
fast
+/-
esc
set tempo
stop
Strumming
There is no strumming pattern for this song yet. and get +5 IQ
-
Naufragando?

INTRO:    A   C#m   D

    F#m         C#m        Bm     F#m - E
E -----------------------------------------
B ---------------5-------------------------
G --4b6--4b6b4-2---4b6b4-2-----------------
D -------------------------4---------------
A -----------------------------------------
E -----------------------------------------


            A     Bm             C#m   D
No puede salir el sol, nada es fácil para vos.
            A/E            B/D#       Bm    E4  E
no le encuentras la vuelta, a este bajón.


             A       Bm            C#m      D
No queres nadar con Dios, cada vez todo va peor.
            A/E           B/D#      Bm    E7
tus amigos te dejaron, ya sos una decepción.


              F#m      C#m               F#m   (D#dimm o B7)
Es que no quieres entender, que Jesús por ti murió.
 Bm            E     A
que Jesús por ti murió.


CORO
  D  E  A     C#7      F#m
Naufragando,  sobre el mar,
           D         E      A
el que tu mismo has inventado,
           Bm             E
no tienes fuerzas para luchar.
            D  E  A
Mas yo voy na-ve-gando,
C#7                    F#m   C#m
se que al final, todo será mejor,
             F#m                  (D#dimm o B7)
no habrá tristezas ya no habrá dolor,
Bm     E             A
con Jesús en el corazón.


INTRO:    A   C#m   D

    F#m         C#m        Bm     F#m - E
E -----------------------------------------
B ---------------5-------------------------
G --4b6--4b6b4-2---4b6b4-2-----------------
D -------------------------4---------------
A -----------------------------------------
E -----------------------------------------


2da. y 3ra. ESTROFA


CORO


PUNTEO:    A   C#m   D   F#m   C#m   Bm   E   (G#  A  B)

     A              C#m        D
E -------------------12--10-12-14--------------------------------
B --12b14--14b12--10--------------12-14-15-----------------------
G -----------------------------------------11-13-13b14b13p11-----
D -----------------------------------------------------------12--
A ---------------------------------------------------------------
E ---------------------------------------------------------------


        F#m                               C#m         Bm        E
E ------------------------------------------------------10--------12--
B --7-9-10-9-7-----------7--------------------------------------------
G -------------9-7-6-------9-7-6---------6b7b6-4-6---/11--11---/13----
D -------------------9-7---------9-7-4-4------------------------------
A --------------------------------------------------------------------
E --------------------------------------------------------------------


CORO
  D  E  A     C#7      F#m
Naufragando,  sobre el mar,
           D         E      A
el que tu mismo has inventado,
           Bm             E
no tienes fuerzas para luchar.
            D  E  A
Mas yo voy na-ve-gando,
C#7                    F#m   C#m
se que al final, todo será mejor,
             F#m                  (D#dimm o B7)
no habrá tristezas ya no habrá dolor,
Bm     E             A
con Jesús en el corazón.


FINAL:   A   C#m   D

    F#m         C#m        Bm     A - Asus2
E -----------------------------------------
B ---------------5-------------------------
G --4b6--4b6b4-2---4b6b4-2-----------------
D -------------------------4---------------
A -----------------------------------------
E -----------------------------------------


CUALQUIER ERROR NO DUDAR EN HACERLO SABER, GRACIAS!
Gustavo749@

            
            
Suggest correction
Creating personal tab
Creating personal tab
You can edit any tab online and save it as your Personal.

You can edit, replace or remove any tab part or add personal notes – all changes will be seen only by you.

Personal tabs can be accessed anytime from any device, even offline.
Learn more »
Give kudos to tab author, rate the tab!
1 2 3 4 5
comments
print report bad tab
guest
Wanna post a correction for this tab? Suggest correction