Oops, an error
Loading. Please wait.

Somos Nada chords

12 views 1 this week
no commentswrite comment
1 2 3 4 5
3 more votes to show rating
add to favorites
×
Save as Personal and add changes to this tab that will be seen only by you. Learn more ›
×
You can save this tab as Personal to edit and correct it or add notes. All changes will be seen only by you. Learn more »
launch autoscroll
font size
0
reset
transpose
0
reset
display chords
guitar tuner
edit
Autoscroll
slow
fast
+/-
esc
set tempo
stop
Strumming
There is no strumming pattern for this song yet. and get +5 IQ
-
INTRO:  ( E   A   E   B   A   E )


      E
E ------0-------------0--------------
B --2h3--------0--2h3--------0--2h3--
G ---------0h1-----------0h1---------
D -----------------------------------
A -----------------------------------
E -----------------------------------


    A                                   E
E -----------------------------------------------------------------------
B -----------------------------------------------------------------------
G -----------------------------------------------------------------------
D --2-2-4-2-5-2-4-2---2-4-2-5-2-4-2--------------------------------------
A --0-0-0-0-0-0-0-0---0-0-0-0-0-0-0-----2-2-4-2-5-2-4-2---2-4-2-5-2-4-2--
E --------------------------------------0-0-0-0-0-0-0-0---0-0-0-0-0-0-0--


      B        A        E
E ------7--------5--------0-------------0-------
B --------------------2h3--------0--2h3---------
G --7s8------5s6-------------0h1-----------0h1--
D ----------------------------------------------
A ----------------------------------------------
E ----------------------------------------------


 E
Ya que encontraste el camino

y el verdadero amor,
 A
El curo todas tus penas
 E
pero te preguntas hoy
           B             A             E
¿Por qué a mi, por que a mi, El me eligió?


 E
Muchas veces me preguntaba

¿Por qué Jesús se humillo?
 A
si era el hijo de Dios
      E
¿Por qué tanto se quebranto?
           B             A           E
¿Por qué a ti, por que a mi, El nos amo?


CORO
          A
Si somos nada, delante de Dios
       E
somos nada, y aun El nos amo.
                                     B
entrego a su hijo, para morir en la Cruz.
          A
Si somos nada, tienes que entender
           E
que somos nada y El sigue siendo fiel,
        B                   A                E
y si le amas a El, estoy seguro que El te amara.


INTRO:   E   A   E   B   A   E


 E
Si no encontraste el camino,

ni el verdadero amor,
    A
no encontraste nada en tu vida
     E
por eso te preguntas hoy
             B               A
¿Quién es Jesús, quien es Jesús?
              E
Que tanto me amo.


CORO


PUNTEO:   A   E   A   E   B   A   E


              A                                    E
E --------12-12-15-------12-12----14b15-(15)b14-12-15-----
B --12-15-------------14-------14-------------------------
G --------------------------------------------------------
D --------------------------------------------------------
A --------------------------------------------------------
E --------------------------------------------------------

                                        A                    E
E --14-12----12---------------------12-14b15(15)))))--15b17-15b17b15-12--
B --------15----15-12----12---12-15--------------------------------------
G --------------------15-------------------------------------------------
D -----------------------------------------------------------------------
A -----------------------------------------------------------------------
E -----------------------------------------------------------------------

                                                      B         A
E --15-12----------------------------------------------------------------
B --------15-12--15-12--------------------------8-10-10b12-13t))))b10b12-
G ---------------------14-12--14b15b14-12-----9--------------------------
D ----------------------------------------14-----------------------------
A -----------------------------------------------------------------------
E -----------------------------------------------------------------------

     E
E --------------------------------------
B --10b12b10-8---8-----10b12b10-8-------
G -------------9-----9------------9-9---
D --------------------------------------
A --------------------------------------
E --------------------------------------


CORO
          A
Si somos nada, delante de Dios
       E
somos nada, y aun El nos amo.
                                     B
entrego a su hijo, para morir en la Cruz.
          A
Si somos nada, tienes que entender
           E
que somos nada y El sigue siendo fiel,
        B                   A
y si le amas a El, estoy seguro,
                                         (G-G-E  A-A-G)   G    E
estoy seguro,  estoy seguro, que El te amara.


CUALQUIER ERROR NO DUDAR EN HACERLO SABER, GRACIAS!
Gustavo749@

            
            
Suggest correction
Creating personal tab
Creating personal tab
You can edit any tab online and save it as your Personal.

You can edit, replace or remove any tab part or add personal notes – all changes will be seen only by you.

Personal tabs can be accessed anytime from any device, even offline.
Learn more »
Give kudos to tab author, rate the tab!
1 2 3 4 5
comments
print report bad tab
guest
Wanna post a correction for this tab? Suggest correction