Oops, an error
Loading. Please wait.

Planet Tokyo bass

1,013 views 1 this week
no commentswrite comment
1 2 3 4 5
2 more votes to show rating
add to favorites
×
Save as Personal and add changes to this tab that will be seen only by you. Learn more ›
×
You can save this tab as Personal to edit and correct it or add notes. All changes will be seen only by you. Learn more »
launch autoscroll
font size
0
reset
guitar tuner
edit
Autoscroll
slow
fast
+/-
esc
set tempo
stop
Author
Puffy Amiyumi
Planet Tokyo
from the album Nice.
Standard Tuning
Tabbed by Alex Fragd (mavrick45@gmail.com)

Intro X3
G-----------------------|
D-----------------------|
A---/8888888888888888---|
E-----------------------|


Verse X4
G------------------------------------------|
D------------------------------------------|
A---8888888888888888---------------6-6-6---|
E---------------------6-6-6654-4-4---------|


Verse X2
G-----------------------|
D-----------------------|
A---/8888888888888888---|
E-----------------------|


Verse
G--------------------------------------------------------------------------------------------|
D----------------------5555555555555555--888888888888888888888888--11-11-11-11-10-10-10-10---|
A---/8888888888888888------------------------------------------------------------------------|
E--------------------------------------------------------------------------------------------|
     The CD spins and we begin all systems go....

G--------------------------------------------------------------------------------------------|
D----------------------5555555555555555--888888888888888888888888--10-10-10-10-10-10-10-10---|
A---/8888888888888888------------------------------------------------------------------------|
E--------------------------------------------------------------------------------------------|
     It wont be long...

Chorus
G----------------------------------------------------------------------------|
D---------------------------------------------------------5555555555555555---|
A---8888888888888888--------------------5555555555555555---------------------|
E---------------------5555555555555555---------------------------------------|
Planet Tokyo...

G---------------------------------------------------------------------------------------------|
D-----------------5555--7777777777777777------------------------------------------------------|
A---888888888888--------------------------555555555555--8888--1010101010101010101010---8888---|
E---------------------------------------------------------------------------------------------|
On the radio...                                               (10's)


G--------------------------------------------------------------------------------|
D--------------------------------------------------------------------------------|
A----------------6-6-6--8888888888888888---------------6-6-6--8888888888888888---|
E---6-6-6654-4-4--------------------------6-6-6654-4-4---------------------------|
  Tonight....                             Right...


G-------------------|
D-------------------|
A---/888888888888---|
E-------------------|


Verse
G-----------------------------------------------------------------------------------------------------|
D---333333333333-3234--5555555555555555--7777-8888888888888888---11-11-11-11-10101010-8888-10101010---|
A-----------------------------------------------------------------------------------------------------|
E-----------------------------------------------------------------------------------------------------|
    You're looking well....


G---------------------------------------------------------------------------------------------9---|
D---333333333333-3234--5555555555555555--7777-888888888888888888888888---10-10-10-10-10-10-10-----|
A-------------------------------------------------------------------------------------------------|
E-------------------------------------------------------------------------------------------------|


Chorus
G--------------------------------------------------------------------------------|
D-----------------------------------------------2222-3333-777--5555555555555555--|
A---8888888888888888---000000000000-3333--5555-----------------------------------|
E--------------------------------------------------------------------------------|
Planet Tokyo...


G----------------------------------------------------------------------------------|
D--------------------------------------------------------------555555555555-7777---|
A---888888888888-10-10-88-777777777777-88-77-5555555555555555----------------------|
E----------------------------------------------------------------------------------|
On the radio...

G--------------------------------------------|
D---8-8-8876-6-6-----------------------------|
A-----------------6-6-6---8--6--8--6--8--6---|
E--------------------------------------------|
  Tonight...

G---------------------------------------------------------------------------|
D-------------------------------------8-------------------------------------|
A-----------------6-6-6--8-6-8-6---8-------------------6-6-6--8-6-8-6-8-6---|
E---6-6-6654-4-4-------------------------6-6-6654-4-4-----------------------|

G------------------------|
D------------------------|
A------------------/6~---|
E---6-6-6654-4-4\1-------|

Drum solo

Chorus
G-----------------------------------------------------------------------------------------|
D---------------------------7-7-7---------------------------------------------------------|
A---8-8-8-8-8-8-8-8-7-7-7-7--------555555555555--8888--10101010101010101010101010101010---|
E-----------------------------------------------------------------------------------------|
    _______(Staccatto)_____                               (10's)


G-------------------------------------------------------------------------------------------|
D-------------------------------------------------------------------------------------------|
A---888888888888-10-10-88-777777777777-88-77-555555-77-8888-12-12-12-12-1010101010101010----|
E----------------------------------------------------------------------------------(3333)---|
On the radio...                                                        (10's)


G----------------------------------------------------------------------------|
D-----------------------------/8888-77---------------3333-5555555555555555---|
A---10/8888888888888888--7777-----------555555555555-------------------------|
E----------------------------------------------------------------------------|


Breakdown
G--------------------------------------------------------------------------------------|
D----------------------------------------------/8888-7777------------------------------|
A----------------------------------------------------------55555555-77-88-12-12-12-12--|
E---8--8-8-8--8-8-8--8-8-8--8-8-9--9-9-9--9-9------------------------------------------|
On the radio...

	G------------------------------------------------|
	D------------------------------------------------|
	A---10-10-10-10-10-10-10-10--10-10-88------------|
	E-------------------------------------10-10-88\--|


Outro                                         Repeat/fade out
G----------------------|------------------------------------------------------------------------------|
D----------------------|-----------------------------3333--------------------------------------------*|
A----------------------|-----------77777777-55555555------5555----------2222-5555-3333333333333333---*|
E---111111111111--3333-|-55555555------------------------------33333333-------------------------------|
       (1's)

            
            
Suggest correction
Creating personal tab
Creating personal tab
You can edit any tab online and save it as your Personal.

You can edit, replace or remove any tab part or add personal notes – all changes will be seen only by you.

Personal tabs can be accessed anytime from any device, even offline.
Learn more »
Give kudos to tab author, rate the tab!
1 2 3 4 5
comments
print report bad tab
guest
You may want to rate the tab now too:
select rating
Wanna post a correction for this tab? Suggest correction