Oops, an error
Loading. Please wait.

Jag Ar En Liten Gosse bass

247 views 1 this week
no commentswrite comment
1 2 3 4 5
3 more votes to show rating
add to favorites
×
Save as Personal and add changes to this tab that will be seen only by you. Learn more ›
×
You can save this tab as Personal to edit and correct it or add notes. All changes will be seen only by you. Learn more »
launch autoscroll
font size
0
reset
guitar tuner
edit
Autoscroll
slow
fast
+/-
esc
set tempo
stop
Author
  
this song Is in in swedish so I dont aspekt u who doesnt know swedish to try playing this song !
   intro 1
G[----------------------------------------]
D[----------------------------------------]
A[7-77-7-77-7-77-7-77-7-77-7-77-7-77-7-77-]
E[----------------------------------------]
                                     Jag e en liten gosse......
vers 1                                           
G[----------------------------------------]
D[----------------------------------------]
A[7-7--7-7--5-5--7-7--7-7--7-7--5-5--7-7--]
E[---7----7----5----7----7----7----5----7-]
            som har åkt .....

chorus
G[------------------------------------------------------------]
D[------------------------------------------------------------]
A[----5-5-------------7-7-5-5-7-77-77-5-5-------------7-7-5-5-]
E[--------5-5-7-77-77---------------------5-5-7-77-77---------]
continue direct to the intro again
intro 2
G[----------------------------------------]
D[----------------------------------------]
A[7-77-7-77-7-77-7-77-7-77-7-77-7-77-7-77-]
E[----------------------------------------]

  vers 2
G[----------------------------------------]
D[----------------------------------------]
A[7-7--7-7--5-5--7-7--7-7--7-7--5-5--7-7--]
E[---7----7----5----7----7----7----5----7-]


chorus
G[------------------------------------------------------------]
D[------------------------------------------------------------]
A[----5-5-------------7-7-5-5-7-77-77-5-5-------------7-7-5-5-]
E[--------5-5-7-77-77---------------------5-5-7-77-77---------]
continue direct to the intro again
 intro 3
G[----------------------------------------]
D[----------------------------------------]
A[7-77-7-77-7-77-7-77-7-77-7-77-7-77-7-77-]
E[----------------------------------------]

  vers 3 
G[----------------------------------------]
D[----------------------------------------]
A[7-7--7-7--5-5--7-7--7-7--7-7--5-5--7-7--]
E[---7----7----5----7----7----7----5----7-]

chorus
G[------------------------------------------------------------]
D[------------------------------------------------------------]
A[----5-5-------------7-7-5-5-7-77-77-5-5-------------7-7-5-5-]
E[--------5-5-7-77-77---------------------5-5-7-77-77---------]
continue direct to the outro 
   outro 
G[----------------------------------------]
D[----------------------------------------]
A[7-77-7-77-7-77-7-77-7-77-7-77-7-77-7-77-]
E[----------------------------------------]

this is a good simple song . iallafall för dom som kan svenska !

if there are any problems e mail me about it at : basslayer_leo@hotmail.com
om det finns nåra klagomål så skriv till mig på : basslayer_leo@hotmail.com

            
            
Suggest correction
Creating personal tab
Creating personal tab
You can edit any tab online and save it as your Personal.

You can edit, replace or remove any tab part or add personal notes – all changes will be seen only by you.

Personal tabs can be accessed anytime from any device, even offline.
Learn more »
Give kudos to tab author, rate the tab!
1 2 3 4 5
comments
print report bad tab
guest
You may want to rate the tab now too:
select rating
Wanna post a correction for this tab? Suggest correction