Oops, an error
Loading. Please wait.

A Bad Reputation bass

by Pulley
1,041 views 1 this week
2 commentsread comments
1 2 3 4 5
x 3
add to favorites
×
Save as Personal and add changes to this tab that will be seen only by you. Learn more ›
×
You can save this tab as Personal to edit and correct it or add notes. All changes will be seen only by you. Learn more »
launch autoscroll
font size
0
reset
guitar tuner
edit
Autoscroll
slow
fast
+/-
esc
set tempo
stop
Author
++++++++++++++++++++++++++++
| Pulley- A Bad Reputation |
++++++++++++++++++++++++++++

h: hammer on
p: pull off
/: slide up
\: slide down
x: mute
~: let ring

Tuning: EADG

Intro
1.
G|--------------------------------------------------------------------|
D|-5-5-5-5p4--4-4-4h7--7-7-7p4--4-4--5-5-5-5p4--4-4-4p2--2-2-2p0--0-0-|
A|--------------------------------------------------------------------|--x4
E|--------------------------------------------------------------------|

Verse
"Long, long time ago..."
2.
G|---------------------------------------------------------------------------------|
D|-4-4-4-444-5-5-5-555-4-4-4-444-5-5-5-555-4-4-4-444-5-5-5-555---------------------|
A|-------------------------------------------------------------3-3-3-333-----------|
E|-----------------------------------------------------------------------3-3-3-333-|

3.
G|---------------------------------------------------------------------------------|
D|-4-4-4-444-5-5-5-555-4-4-4-444-5-5-5-555-4-4-4-444-5-5-5-555-2-2-2-222-5-5-5-555-|
A|---------------------------------------------------------------------------------|
E|---------------------------------------------------------------------------------|

Chorus
"What comes around..."
3.
G|------------------------------------------------------------------------------------|
D|-----------------------------------------------------------------------7-7-7-7~-9-9-|
A|-3-3-3-333-----------5-5-5-555-5-5-5-555-3-3-3-333-----------5-5-5-555--------------|
E|-----------3-3-3-333-------------------------------3-3-3-333------------------------|

4.
G|-------------------------------------------------------------------|
D|-------------------------------4h5-4-0-4h5-4-0---------------------|
A|-3-3-3-333-----------5-5-5-555-------------------------------------|
E|-----------3-3-3-333---------------------------0-0-0-000-3-3-3-333-|

Outro
5.
G|-------------------------------------|
D|-------------5-4-0-5-4-0-------------|
A|-3-5-5-3-5-5-------------3-5-5-3-5-5-|
E|-------------------------------------|

Verse
"So here we are again..."
6.
G|---------------------------------------------------------------------------------|
D|-4-4-4-444-5-5-5-555-4-4-4-444-5-5-5-555-4-4-4-444-5-5-5-555---------------------|
A|-------------------------------------------------------------3-3-3-333-----------|
E|-----------------------------------------------------------------------3-3-3-333-|

9.
G|---------------------------------------------------------------------------------|
D|-4-4-4-444-5-5-5-555-4-4-4-444-5-5-5-555-4-4-4-444-5-5-5-555-2-2-2-222-5-5-5-555-|
A|---------------------------------------------------------------------------------|
E|---------------------------------------------------------------------------------|

Chorus
"What comes around..."
10.
G|------------------------------------------------------------------------------------|
D|-----------------------------------------------------------------------7-7-7-7~-9-9-|
A|-3-3-3-333-----------5-5-5-555-5-5-5-555-3-3-3-333-----------5-5-5-555--------------|
E|-----------3-3-3-333-------------------------------3-3-3-333------------------------|

11.
G|-------------------------------------------------------------------|
D|-------------------------------5h7-5-4-4h5-4-0---------------------|
A|-3-3-3-333-----------5-5-5-555-------------------------------------|
E|-----------3-3-3-333---------------------------0-0-0-000-3-3-3-333-|

Outro
12.
G|------------------------------------------------------------------------------------------------|
D|-------------5-4-0-5-4-0---------------------------------------5-4-0-5-4-0----------------------|
A|-3-5-5-3-5-5-------------3-5-5-3-5-5---------------3-5-5-3-5-5-------------3-5-5-3-5-5----------|
E|-------------------------------------x-xxxx-x-xxxx-------------------------------------x-xxxx-x-|

13.
G|-----------|
D|-----------|
A|-5~--------|
E|-----------|

Chorus
"What comes around..."
14.
G|---------------------------------------------------------------------------------|
D|---------------------------------------------------------------------------------|
A|-3-3-3-333-----------5-5-5-555-5-5-5-555-3-3-3-333-----------5-5-5-555-5-5-5-555-|
E|-----------3-3-3-333-------------------------------3-3-3-333---------------------|

15.
G|---------------------------------------------------------------------------------|
D|---------------------------------------------------------------------------------|
A|-3-3-3-333-----------5-5-5-555-5-5-5-555---------------------5-5-5-555-5-5-5-555-|
E|-----------3-3-3-333---------------------0-0-0-000-3-3-3-333---------------------|

"What they said to me..."
16.
G|------------------------------------------|
D|------------------------------------------|
A|---------------------3-5-5-3-5-5-3-5-5-5x-|
E|-0-0-0-000-3-3-3-333----------------------|

Lyrics:

Long, long time ago I saw this dick outside a punk rock show
He sized me up from head to toe
I think he wants to kill me
His girlfriend looked like some big piece of shit and started drooling
I think she wants to do me
So if at first you don't succeed you try and try again
I told her you're not my type
I'm just here to slam
I've seen Agression
Ill Repute just started playing the last song that they're playing
Cherokee people Cherokee nation

What comes around will go around
What they said to me will the good times be all you forget
What comes around will go around
What they said to me will the good times be all you regret

So here we are again we're right back where we started at
This assholes right up in my face
I guess that's how he likes to act
A broken bottle in his teeth
I think his smile's kind of sweet
He won't be fucking with me
So when I'm seen out at a show they step aside and let me go
It's such a joke
I'm really not that tough
There is no moral to my story
Hit him first and stole his glory which was worse
I guess that's just what worked for me

+++++++++++++++++++++++++++++++++
| RaiLeff                       |
| Underground__Dora@Hotmail.Com |
+++++++++++++++++++++++++++++++++
Suggest correction
Creating personal tab
Creating personal tab
You can edit any tab online and save it as your Personal.

You can edit, replace or remove any tab part or add personal notes – all changes will be seen only by you.

Personal tabs can be accessed anytime from any device, even offline.
Learn more »
Give kudos to tab author, rate the tab!
1 2 3 4 5
comments
print report bad tab
2 comments total.
0 reply
chrisjenks 2,712 Jul 14, 2008 05:20 AM

good job!

0 reply
RichyHowardBass 50 Jul 05, 2009 05:48 AM

mint tab mert

guest
You may want to rate the tab now too:
select rating
Wanna post a correction for this tab? Suggest correction