Oops, an error
Loading. Please wait.

Black Box Tab

10 views 1 this week
no commentswrite comment
1 2 3 4 5
3 more votes to show rating
add to favorites
launch autoscroll
font size
0
reset
how to read this tab
guitar tuner
Autoscroll
slow
fast
+/-
esc
set tempo
stop
Help us to improve Ultimate-Guitar.com Take our survey!
×
Author
Difficulty
Tuning
novice
D G C F A D
About this tab version
Easy version, even beginners could play it easily. Was this info helpful? Yes No
BAND:   Pulley
SONG:   Black Box
ALBUM: No change in the weather

tune: DGCFAd

[INTRO/VERSE]
Guit 1 
d|---------------------------------|
A|-------10-------------10---------|
F|----12----12-------12----12------|
C|-12----------12-12----------12---|
G|---------------------------------|
D|---------------------------------|

Guit 2
d|--------------|
A|--------------|
F|--------------|
C|-12--12--9--5-|
G|-10---9--7--3-|
D|--------------|

d|--------------|
A|--------------|
F|--------------|
C|-12--12--9--7-|
G|-10---9--7--5-|
D|--------------|

both guitars
d|---------------------------------------------------|
A|---------------------------------------------------|
F|---------------------------------------------------|
C|-5---7-------5---7---9-7---5---7---------2---5---7-|
G|-3---5---5---3---5---7-5---3---5-5-5-2---0---3---5-|
D|---------3-----------------------3-2-0-------------|

[Solo]
Guit 1
d|-7-8-10----7--8-8-7-------------7-8-10----------12---12----------------------|
A|--------10----------10-8-10-8-7--------10-12-13---------15-13-12-12h13p12-10-|
F|-----------------------------------------------------------------------------|
C|-----------------------------------------------------------------------------|
G|-----------------------------------------------------------------------------|
D|-----------------------------------------------------------------------------|

Guit 2
d|------7-----------------------------7-------8-7-5------------|
A|-8-10---7-8--5-5-3-------------8-10---7-8-5-------8-8h10p8-7-|
F|-------------------5-4-5-4-2---------------------------------|
C|-------------------------------------------------------------|
G|-------------------------------------------------------------|
A|-------------------------------------------------------------|



************************************

| h  Hammer-on
| p  Pull-off

************************************
Suggest correction
Give kudos to tab author, rate the tab!
1 2 3 4 5
comments
print report bad tab
guest
You may want to rate the tab now too:
select rating
Wanna post a correction for this tab? Suggest correction