Oops, an error
Loading. Please wait.

Blindfold bass

by Pulley
806 views 3 this week
1 commentread comment
1 2 3 4 5
x 3
add to favorites
×
Save as Personal and add changes to this tab that will be seen only by you. Learn more ›
×
You can save this tab as Personal to edit and correct it or add notes. All changes will be seen only by you. Learn more »
launch autoscroll
font size
0
reset
guitar tuner
edit
Autoscroll
slow
fast
+/-
esc
set tempo
stop
Author
+++++++++++++++++++++
| Pulley- Blindfold |
+++++++++++++++++++++

Tuning: EADG

Intro
(1 not 11)
1.
G|----------------------------------------------------------------------|
D|----------------------------------------------------------------------|
A|----------guitar-------------------5xx5x555-1xx1x111------------3-1-0-|
E|-----------------------------------------------------1xx1x111-11-1-1--|

2.
G|-----------------------------------|
D|-----------------------------------|
A|-1x--------------------------------|
E|--------------0-1-1111111-11111111-|

Verse
"Sitting in the backyard..."
3.
G|---------------------------------------------------------------------------------|
D|-------------3-333-3-333-------------------------------------3333-2222-0000------|
A|-0-000-1-111-------------0-000-1-111-------------0-000-1-111----------------3333-|
E|-------------------------------------1-111-3-311---------------------------------|

Pre-Chorus
"Laughing at the jokes..."
4.
G|-----------------------------------------|
D|---------------------------------5-5-5-5-|
A|-1~--------0~----1~----33333333-3-3-3-3--|
E|-----------------------------------------|

Chorus
"Its only over when you've given up on me..."
5.
G|-------------------------------------------------------------------------|
D|-------------------------------------------------------------------------|
A|-55555555-11111111------------3-1-0--55555555-11111111------------3-1-0--|
E|-------------------11111111-11-1-1---------------------11111111-11-1-1---|

6.
G|-------------------------------------|
D|-------------------------------------|
A|-55555555-11111111------------3-1-0--|
E|-------------------11111111-11-1-1---|

Outro
7.
G|----------------------------------|
D|----------------------------------|
A|-1-xx1xx1xx1----------------------|
E|-------------0-1-1111111-11111111-|

Verse
"You held it in for so long..."
8.
G|---------------------------------------------------------------------------------|
D|-------------------5-----------------------------------------3333-2222-0000------|
A|-0-000-1-111-------------0-000-1-111-------------0-000-1-111----------------3333-|
E|-------------1-111---111-------------1-111-3-311---------------------------------|

Pre-Chorus
"Blindfold me a role..."
9.
G|-----------------------------------------|
D|---------------------------------5-5-5-5-|
A|-1~--------0~----1~----33333333-3-3-3-3--|
E|-----------------------------------------|

Chorus
"Its only over..."
10.
G|-------------------------------------------------------------------------|
D|-------------------------------------------------------------------------|
A|-55555555-11111111------------3-1-0--55555555-11111111------------3-1-0--|
E|-------------------11111111-11-1-1---------------------11111111-11-1-1---|

11.
G|-------------------------------------|
D|-------------------------------------|
A|-55555555-11111111------------3-1-0--|
E|-------------------11111111-11-1-1---|

Outro
12.
G|-------------------------|
D|-------------------------|
A|-1-xx1xx1xx1-------------|
E|-------------0--1~----1x-|

Bridge
13.
G|-----------------------------|
D|-3~----1~----0h1-------------|
A|-----------------1~----------|
E|-----------------------1~----|

"There's one thing left to say..."
14.
G|------------------------------------------------------------------------|
D|------------------------------------------------------------------------|
A|-------------------11111111-11111111-------------------11111111-11111-0-|
E|-11111111-11111111-------------------11111111-11111111------------------|

Pre-Chorus
"Those words I said to you..."
15.
G|-------------------------------------------------------------------------|
D|-------------------------------------------------------------------------|
A|----------1-11-1-1----------3-33-3-3----------1-11-1-1----------3-33-3-3-|
E|-3-33-3-3----------1-11-1-1----------3-33-3-3----------1-11-1-1----------|

16.
G|-------------------------------------------------------------------------|
D|-------------------------------------------------------------------------|
A|----------1-11-1-1----------3-33-3-3----------1-11-1-1-3-33-3-3-3-33-3-3-|
E|-3-33-3-3----------1-11-1-1----------3-33-3-3----------------------------|

Chorus
"Its only over..."
17.
G|-------------------------------------------------------------------------|
D|-------------------------------------------------------------------------|
A|-55555555-11111111------------3-1-0--55555555-11111111------------3-1-0--|
E|-------------------11111111-11-1-1---------------------11111111-11-1-1---|

18.
G|-------------------------------------|
D|-------------------------------------|
A|-55555555-11111111------------3-1-0--|
E|-------------------11111111-11-1-1---|

Outro
19.
G|-------------------|
D|-------------------|
A|-1-xx1xx1xx1-------|
E|-------------0~----|

Lyrics:

Sitting in the backyard on a Sunday in the morning
Touched by you and all your curls that sucked me in
I can hear you when you're screaming
I hear you when you're talking to me

Laughing at the jokes, laughing at the jokes
I've said before 

It's only over when you've given up on me

You held it in for so long detaching yourself from everything I gave
Now you're on your own there's nobody else
So happy on the outside with your conscience coming home

Blindfold me a role, blindfold me a role you play so well

There's one thing left to say

Those words I said to you were never true
Justified everything I gave to you
I won't ever look at you the same
Step aside you always walk away

+++++++++++++++++++++++++++++++++
| RaiLeff                       |
| Underground__Dora@Hotmail.Com |
+++++++++++++++++++++++++++++++++

            
            
Suggest correction
Creating personal tab
Creating personal tab
You can edit any tab online and save it as your Personal.

You can edit, replace or remove any tab part or add personal notes – all changes will be seen only by you.

Personal tabs can be accessed anytime from any device, even offline.
Learn more »
Give kudos to tab author, rate the tab!
1 2 3 4 5
comments
print report bad tab
1 comment total.
0 reply
BlenderBR 18,046 Aug 15, 2014 03:30 PM

Very good! Thanks for tabbing it!

guest
You may want to rate the tab now too:
select rating
Wanna post a correction for this tab? Suggest correction