Oops, an error
Loading. Please wait.

Immune bass

by Pulley
142 views 1 this week
no commentswrite comment
1 2 3 4 5
2 more votes to show rating
add to favorites
×
Save as Personal and add changes to this tab that will be seen only by you. Learn more ›
×
You can save this tab as Personal to edit and correct it or add notes. All changes will be seen only by you. Learn more »
launch autoscroll
font size
0
reset
guitar tuner
edit
Autoscroll
slow
fast
+/-
esc
set tempo
stop
++++++++++++++++++
| Pulley- Immune |
++++++++++++++++++


"I wanted one more night with you..."


Tuning: Half Step Down (EbADG)


                                  PART I (0:00)


Verse
"Now you seem to be at peace..."
1.
G||-------------------------------------------------------------------------|
D||-------------------------------------------------------------------------|
A||----------11111111----------------------------11111111-------------------|
Eb|-00000000----------22222222-55555555-00000000----------22222222-55555555-|

Chorus
"Everyday that you're away..."
2.
G||-------------------------------------------------------------------------|
D||-------------------------------------------------------------------------|
A||-66666666-44444444----------11111111-66666666-44444444----------11111111-|
Eb|-------------------55555555----------------------------55555555----------|

Outro
3.
G||-----------------------|
D||-----------------------|
A||-6~-601~-1-2~-22-------|
Eb|----------------3~-333-|

4.
G||-------------------------------------|
D||-------------------------------------|
A||--------0-11111110-------------------|
Eb|-0000000-----------22222224-55555554-|

Verse
"The signs they hang up..."
5.
G||-------------------------------------------------------------------------|
D||-------------------------------------------------------------------------|
A||----------1111x-------------------------------1111x----------------------|
Eb|-0000x-------------2222x----5555x----0000x-------------2222x----5555x----|

"Words keep turning..."
6.
G||-------------------------------------------------------------------------|
D||----------------------------66666666-------------------------------------|
A||----------11111111----------------------------11111111-------------------|
Eb|-00000000----------22222222----------00000000----------22222222-5555-----|

Chorus
"Everyday that you're away..."
7.
G||-------------------------------------------------------------------------|
D||-------------------------------------------------------------------------|
A||-66666666-44444444----------11111111-66666666-44444444----------11111111-|
Eb|-------------------55555555----------------------------55555555----------|

Outro
8.
G||-----------------------|
D||-----------------------|
A||-6~-601~-1-2~-22-------|
Eb|----------------3~-333-|

Bridge
9.
G||-------------------------------------------------------------------------|
D||-------------------------------------------------------------------------|
A||--------0-11111110--------------------------0-11111110-------------------|
Eb|-0000000-----------22222224-55555554-0000000-----------22222224-55555555-|

"As a child you gave to me..."
10.
G||-------------------------------------------------------------------------|
D||-------------------------------------------------------------------------|
A||-22222222-22222222----------66666666-22222222-22222222-44444444-44444444-|
Eb|-------------------00000000----------------------------------------------|

11.
G||-------------------------------------------------------------------------|
D||-------------------------------------------------------------------------|
A||-66666666-44444444----------11111111-66666666-44444444----------11111111-|
Eb|-------------------55555555----------------------------55555555----------|

Chorus
"Everyday that you're away..."
12.
G||-------------------------------------------------------------------------|
D||-------------------------------------------------------------------------|
A||-66666666-44444444----------11111111-66666666-44444444----------11111111-|
Eb|-------------------55555555----------------------------55555555----------|

"Everyday that you're away..."
13.
G||----------------------------------------------------------8-7-8----10-8-7-|
D||------5-6------5-6------------------------5-6------5-6--------------------|
A||-66666-6--44444-4-------6-6-11111111-66666-6--44444-4---------------------|
Eb|-------------------55555-5-----------------------------555-5-5--777--7-7--|

Outro
"One more night with you..."
14.
G||--------------------------------------------------------------------------------|
D||--------------------------------------------------------------------------------|
A||-6~-601~-1-2~-22-------6~-601~-1-2~-22-4~-444-6~-601~-1-2~-22-------------------|
Eb|----------------3~-333----------------------------------------3-3-3-3-0~--------|



                                         PART II (3:29)

Verse
"The greatest earthquake ever known..."
1.
G||-------------------|
D||-------------------|
A||-55555555-55555555-|
Eb|-------------------|

Chorus
"High upon the rapids..."
2.
G||-------------------------------------------------------------------------|
D||-------------------------------------------------------------------------|
A||----------22222222-33333333-66666666----------555555555------------------|
Eb|-44444444----------------------------44444444-----------4x---------------|

Outro
"To the land..."
3.
G||-------------------------------------------------------------------------|
D||-------------------------------------------------------------------------|
A||----------33333333----------------------------33333333-------------------|
Eb|-22222222----------44444444-44444444-22222222----------44444444-44444444-|

"To the land..."
4.
G||--------------------------------------------------------------------7777-|
D||-------------------------------------------------------55555555-5555-----|
A||----------33333333----------------------------33333333-------------------|
Eb|-22222222----------44444444-44444444-22222222----------------------------|

"To the land..."
5.
G||-----------------------------------------------------------------------------------|
D||-----------------------------------------------------------------------------------|
A||----------33333333----------------------------33333333-----------------------------|
Eb|-22222222----------44444444-44444444-22222222----------4x----------------4x--------|


Please rate thanks!!



Lyrics:

Did it have to end this way?
Never hear your name again
Many things I'd like to say
Didn't make any sense to me
Now you seem to be at peace
See what you have left behind
A trail of memories runs deep
Who thought we'd ever run out of time

Everyday that you're away dont know how we make it through
Everyday that you're away I miss another night with you

They signs they hang up on your face
I think you knew we understood
We were immune to what was you
We still held on to what we could
Words keep turning and the light keeps burning
Brighter than before
A trail of memories run deep
Who thought we'd ever run out of time

As a child you gave to me what I see now
When I close my eyes think of you
Stepped aside always walked on by

Everyday that you're away I wanted on more night with you



+++++++++++++++++++++++++++++++++
| Raileff                       |
| Underground__Dora@Hotmail.Com |
+++++++++++++++++++++++++++++++++
Suggest correction
Creating personal tab
Creating personal tab
You can edit any tab online and save it as your Personal.

You can edit, replace or remove any tab part or add personal notes – all changes will be seen only by you.

Personal tabs can be accessed anytime from any device, even offline.
Learn more »
Give kudos to tab author, rate the tab!
1 2 3 4 5
comments
print report bad tab
guest
You may want to rate the tab now too:
select rating
Wanna post a correction for this tab? Suggest correction