Oops, an error
Loading. Please wait.

Stomach Aches bass

by Pulley
435 views 1 this week
no commentswrite comment
1 2 3 4 5
1 last vote to show rating
add to favorites
×
Save as Personal and add changes to this tab that will be seen only by you. Learn more ›
×
You can save this tab as Personal to edit and correct it or add notes. All changes will be seen only by you. Learn more »
launch autoscroll
font size
0
reset
guitar tuner
edit
Autoscroll
slow
fast
+/-
esc
set tempo
stop
Author
+++++++++++++++++++++++++
| Pulley- Stomach Aches |
+++++++++++++++++++++++++


"Going down this road..."


Tuning: EADG



Intro
1.
G|------------------------------------------------------------------------------|
D|----------3~---------------------------------------------------------33333333-|
A|------------------------------------------------------------------------------|
E|-1~----------------1-1111-111111-1-1111-111111-1-1111-111111-11111111---------|

2.
G|-------------------------------------------------------------------|
D|------------------0-0-000------------------------------------------|
A|--------------------------1-11-111---------3-33-333-1-1-1~--00-1-3-|
E|-1-1-111-0-00-000------------------1-1-111-------------------------|

Verse
"Guess I'll let you know..."
3.
G|-------------------------------------------------------------------------|
D|-------------------------------------11111111-11111111-------------------|
A|-------------------00000000-00000000-------------------11111111-11111111-|
E|-11111111-11111111-------------------------------------------------------|

"Its been long and hard..."
4.
G|-------------------------------------------------------------------------|
D|-------------------------------------------------------5-5---------------|
A|-------------------00000000-00000000-11111111-11111111-33333333-33333333-|
E|-11111111-11111111-------------------------------------------------------|

Chorus
"I dont know why everything..."
5.
G|---------------------------------------------------------------------|
D|---------------------0-2-3---0-2-3---------------------5-3-2---5-3-2-|
A|-11111111-11111111-3-------3-------11111111-11111111-3-------3-------|
E|---------------------------------------------------------------------|

"Words that fill the space..."
6.
G|-----------------------------------------------------------------------|
D|---------------------0-2-3---0-2-3-------------------------------------|
A|-11111111-11111111-3-------3-------11111111-11111111-33333333-33333333-|
E|-----------------------------------------------------------------------|

Outro
7.
G|-------------------------------------------------------------------|
D|------------------0-0-000------------------------------------------|
A|--------------------------1-11-111---------3-33-333-1-1-1~--00-1-3-|
E|-1-1-111-0-00-000------------------1-1-111-------------------------|

Verse
"This feeling comes again..."
8.
G|-------------------------------------------------------------------------|
D|-------------------------------------11111111-11111111-------------------|
A|-------------------00000000-00000000-------------------11111111-11111111-|
E|-11111111-11111111-------------------------------------------------------|

"All the years they pass..."
9.
G|--------------------------------------------------------------------5h7p5h7-|
D|-------------------------------------------------------5-5------------------|
A|-------------------00000000-00000000-11111111-11111111-33333333-333---------|
E|-11111111-11111111----------------------------------------------------------|

Chorus
"I dont know why everything..."
10.
G|---------------------------------------------------------------------|
D|---------------------0-2-3---0-2-3---------------------5-3-2---5-3-2-|
A|-11111111-11111111-3-------3-------11111111-11111111-3-------3-------|
E|---------------------------------------------------------------------|

"Words that fill the space..."
11.
G|--------------------------------------------------------------55555555-|
D|---------------------0-2-3---0-2-3-------------------------------------|
A|-11111111-11111111-3-------3-------11111111-11111111-33333333----------|
E|-----------------------------------------------------------------------|

Outro
12.
G|-------------------------------------------------------------|
D|-------------------------------------3~-2~-0~-2~-------3~-5~-|
A|----0~-1~-0~-1~-3~-1~-0~-1~-0~-1~-0~-------------1~-3~-------|
E|-1~----------------------------------------------------------|

Bridge
13.
G|-------------------------------------|
D|-------------------------------------|
A|---------------------------1~--------|
E|-1~----------------------------------|

"Alone I write..."
14.
G|---------------------------------------------------------------------------|
D|-------------------------------------3~------------------------------------|
A|---------------------------1~--------------------------3~--------1~--------|
E|-1~------------------------------------------------------------------------|

15.
G|------------------|
D|-3~---------------|
A|------------------|
E|------------------|

16.
G|------------------------------------------------------------|
D|-------------------------------------------33333333-3333----|
A|--------------------------------------------------------310-|
E|-1-1111-111111-1-1111-111111-1-1111-111111------------------|

Chorus
"Going down this road..."
17.
G|----------------------------------------------------------------------|
D|-3-3-333-2-22-222-0-0-000---------------------------------------------|
A|--------------------------1-11-111---------3-33-333-11111111-11111111-|
E|-----------------------------------1-1-111----------------------------|

"Going down this road..."
18.
G|-------------------------------------------------------------------|
D|-3-3-333-2-22-222-0-0-000------------------------------------------|
A|--------------------------1-11-111---------3-33-333-1-1-1~--00-1-3-|
E|-----------------------------------1-1-111-------------------------|

Outro
19.
G|-----------------------------------|
D|---------1-1-----------------------|
A|-----001-----111-------------------|
E|-1-1-------------1~----------------|


Please rate thanks!!


Lyrics:

I guess I'll let you know just how the story goes
Give you everything you want to hear
Tell me something I already know
It's been long and hard
Weary from the road been traveled
Can I walk away with you?

I don't know why everything is always black and white
I don't know if anything will every get it right
Words that fill the space when I say how I feel
Tell me something I already know

This feeling comes again my stomach aches with pain
Somewhere in the dark I lay
This trip is long and overdue for me
All the years they pass
Stories grow to disbelief
Which one of you should I believe?

Alone I write
Alone I dwell
Alone I rot trapped in this shell
Too old to be young but I'm not old
Loneliness I hear its call
Run behind but I still fall
Never happy
Sometimes I think I'm in hell

Going down this road again



+++++++++++++++++++++++++++++++++
| Raileff                       |
| Underground__Dora@Hotmail.Com |
+++++++++++++++++++++++++++++++++
Suggest correction
Creating personal tab
Creating personal tab
You can edit any tab online and save it as your Personal.

You can edit, replace or remove any tab part or add personal notes – all changes will be seen only by you.

Personal tabs can be accessed anytime from any device, even offline.
Learn more »
Give kudos to tab author, rate the tab!
1 2 3 4 5
comments
print report bad tab
guest
You may want to rate the tab now too:
select rating
Wanna post a correction for this tab? Suggest correction