Oops, an error
Loading. Please wait.

Do You Remember The First Time Bass Tab

version 1
version 1

Whole song

Interactive

by Pulp
49 views 9 this week
no commentswrite comment
1 2 3 4 5
3 more votes to show rating
add to favorites
launch autoscroll
font size
0
reset
guitar tuner
Autoscroll
slow
fast
+/-
esc
set tempo
stop
Help us to improve Ultimate-Guitar.com Take our survey!
×
Author
Difficulty
novice
[Intro]

G|----------------|-----------------|---------------|---------------|
D|--5-------------|--------------5/-|-7----------7/-|-10--------10\-|
A|----------------|-----------------|---------------|---------------|
E|----------------|-----------------|---------------|---------------|


G|----------------|-----------------|---------------|-------------------------|
D|-5--------------|--------------5/-|-7----------7/-|-10-10-10-10-10-10-10-10-|
A|----------------|-----------------|---------------|-------------------------|
E|----------------|-----------------|---------------|-------------------------|


G|--------------------------|
D|-10-10-10-10-10-10-10-10\-|
A|--------------------------|
E|--------------------------|


[Verse]

G|-----------------|------------------|------------------|--------------------------|
D|-5-5-5-5-5-5-5-5-|-5-5-5-5-5-5-5-5/-|-7-7-7-7-7-7-7-7/-|-10-10-10-10-10-10-10-10\-|
A|-----------------|------------------|------------------|--------------------------|
E|-----------------|------------------|------------------|--------------------------|


G|-----------------|------------------|-----------------|-----------------|
D|-5-5-5-5-5-5-5-5-|-5-5-5-5-5-5-5-5\-|-2-2-2-2-2-2-2-2-|-----------------|
A|-----------------|------------------|-----------------|-3-3-3-3-3-3-3-3-|
E|-----------------|------------------|-----------------|-----------------|


G|-----------------|------------------|------------------|-------------------------|
D|-5-5-5-5-5-5-5-5-|-5-5-5-5-5-5-5-5/-|-7-7-7-7-7-7-7-7/-|-10-10-10-10-10-10-10-10-|
A|-----------------|------------------|------------------|-------------------------|
E|-----------------|------------------|------------------|-------------------------|


G|--------------------------|
D|-10-10-10-10-10-10-10-10\-|
A|--------------------------|
E|--------------------------|


[Verse]

G|-----------------|------------------|------------------|--------------------------|
D|-5-5-5-5-5-5-5-5-|-5-5-5-5-5-5-5-5/-|-7-7-7-7-7-7-7-7/-|-10-10-10-10-10-10-10-10\-|
A|-----------------|------------------|------------------|--------------------------|
E|-----------------|------------------|------------------|--------------------------|


G|-----------------|------------------|-----------------|-----------------|
D|-5-5-5-5-5-5-5-5-|-5-5-5-5-5-5-5-5\-|-2-2-2-2-2-2-2-2-|-----------------|
A|-----------------|------------------|-----------------|-3-3-3-3-3-3-3-3-|
E|-----------------|------------------|-----------------|-----------------|


G|-----------------|------------------|------------------|-------------------------|
D|-5-5-5-5-5-5-5-5-|-5-5-5-5-5-5-5-5/-|-7-7-7-7-7-7-7-7/-|-10-10-10-10-10-10-10-10-|
A|-----------------|------------------|------------------|-------------------------|
E|-----------------|------------------|------------------|-------------------------|


G|--------------------------|
D|-10-10-10-10-10-10-10-10\-|
A|--------------------------|
E|--------------------------|


[Chorus]

G|------------------|-----------------|-----------------|-----------------|
D|--5-5-----5-5-----|-5-5-----5-5-----|-7-7-5---7-7-5---|-7-7-5---7-7-5---|
A|------7-5-----7-5-|-----7-5-----7-5-|-------7-------7-|-------7-------7-|
E|------------------|-----------------|-----------------|-----------------|


G|-5-5-----5-5-----|-5-5-----5-5-----|-5-5-7-7-8-8-7-7-|-5-5-------------|
D|-----7-5-----7-5-|-----7-5-----7-5-|-----------------|-----8-8-7-7-6-6-|
A|-----------------|-----------------|-----------------|-----------------|
E|-----------------|-----------------|-----------------|-----------------|


G|------------------|-----------------|-----------------|-----------------|
D|--5-5-----5-5-----|-5-5-----5-5-----|-7-7-5---7-7-5---|-7-7-5---7-7-5---|
A|------7-5-----7-5-|-----7-5-----7-5-|-------7-------7-|-------7-------7-|
E|------------------|-----------------|-----------------|-----------------|


G|-5-5-----5-5-----|-5-5-----5-5-----|-5-5-7-7-8-8-7-7-|-5-5-------------|---------------|
D|-----7-5-----7-5-|-----7-5-----7-5-|-----------------|-----8-8-7-7-6-6-|-5-------------|
A|-----------------|-----------------|-----------------|-----------------|---------------|
E|-----------------|-----------------|-----------------|-----------------|---------------|


[Verse]

G|-----------------|------------------|------------------|--------------------------|
D|-5-5-5-5-5-5-5-5-|-5-5-5-5-5-5-5-5/-|-7-7-7-7-7-7-7-7/-|-10-10-10-10-10-10-10-10\-|
A|-----------------|------------------|------------------|--------------------------|
E|-----------------|------------------|------------------|--------------------------|


G|-----------------|------------------|-----------------|-----------------|
D|-5-5-5-5-5-5-5-5-|-5-5-5-5-5-5-5-5\-|-2-2-2-2-2-2-2-2-|-----------------|
A|-----------------|------------------|-----------------|-3-3-3-3-3-3-3-3-|
E|-----------------|------------------|-----------------|-----------------|


G|-----------------|------------------|------------------|-------------------------|
D|-5-5-5-5-5-5-5-5-|-5-5-5-5-5-5-5-5/-|-7-7-7-7-7-7-7-7/-|-10-10-10-10-10-10-10-10-|
A|-----------------|------------------|------------------|-------------------------|
E|-----------------|------------------|------------------|-------------------------|


G|--------------------------|
D|-10-10-10-10-10-10-10-10\-|
A|--------------------------|
E|--------------------------|


[Chorus]

G|------------------|-----------------|-----------------|-----------------|
D|--5-5-----5-5-----|-5-5-----5-5-----|-7-7-5---7-7-5---|-7-7-5---7-7-5---|
A|------7-5-----7-5-|-----7-5-----7-5-|-------7-------7-|-------7-------7-|
E|------------------|-----------------|-----------------|-----------------|


G|-5-5-----5-5-----|-5-5-----5-5-----|-5-5-7-7-8-8-7-7-|-5-5-------------|
D|-----7-5-----7-5-|-----7-5-----7-5-|-----------------|-----8-8-7-7-6-6-|
A|-----------------|-----------------|-----------------|-----------------|
E|-----------------|-----------------|-----------------|-----------------|


G|------------------|-----------------|-----------------|-----------------|
D|--5-5-----5-5-----|-5-5-----5-5-----|-7-7-5---7-7-5---|-7-7-5---7-7-5---|
A|------7-5-----7-5-|-----7-5-----7-5-|-------7-------7-|-------7-------7-|
E|------------------|-----------------|-----------------|-----------------|


G|-5-5-----5-5-----|-5-5-----5-5-----|-5-5-7-7-8-8-7-7-|-5-5-------------|---------------|
D|-----7-5-----7-5-|-----7-5-----7-5-|-----------------|-----8-8-7-7-6-6-|-5-------------|
A|-----------------|-----------------|-----------------|-----------------|---------------|
E|-----------------|-----------------|-----------------|-----------------|---------------|


[Bridge]

G|-----------------|------------------|------------------|--------------------------| (x3)
D|-5-5-5-5-5-5-5-5-|-5-5-5-5-5-5-5-5/-|-7-7-7-7-7-7-7-7/-|-10-10-10-10-10-10-10-10\-|
A|-----------------|------------------|------------------|--------------------------|
E|-----------------|------------------|------------------|--------------------------|


G|-----------------|-----------------|-----------------|-----------------|
D|-5-5-5-5-5-5-5-5-|-5-5-5-5-5-5-5-5-|-----------------|-----------------|
A|-----------------|-----------------|-----------------|-3-3-3-3-3-3-3-3-|
E|-----------------|-----------------|-5-5-5-5-5-5-5-5-|-----------------|


[Chorus] 

G|------------------|-----------------|-----------------|-----------------|
D|--5-5-----5-5-----|-5-5-----5-5-----|-7-7-5---7-7-5---|-7-7-5---7-7-5---|
A|------7-5-----7-5-|-----7-5-----7-5-|-------7-------7-|-------7-------7-|
E|------------------|-----------------|-----------------|-----------------|


G|-5-5-----5-5-----|-5-5-----5-5-----|-5-5-7-7-8-8-7-7-|-5-5-------------|
D|-----7-5-----7-5-|-----7-5-----7-5-|-----------------|-----8-8-7-7-6-6-|
A|-----------------|-----------------|-----------------|-----------------|
E|-----------------|-----------------|-----------------|-----------------|


G|------------------|-----------------|-----------------|-----------------|
D|--5-5-----5-5-----|-5-5-----5-5-----|-7-7-5---7-7-5---|-7-7-5---7-7-5---|
A|------7-5-----7-5-|-----7-5-----7-5-|-------7-------7-|-------7-------7-|
E|------------------|-----------------|-----------------|-----------------|


G|-5-5-----5-5-----|-5-5-----5-5-----|-5-5-7-7-8-8-7-7-|-5-5-------------|
D|-----7-5-----7-5-|-----7-5-----7-5-|-----------------|-----8-8-7-7-6-6-|
A|-----------------|-----------------|-----------------|-----------------|
E|-----------------|-----------------|-----------------|-----------------|


[Outro]

G|------------------|-----------------|-----------------|-----------------|
D|--5-5-----5-5-----|-5-5-----5-5-----|-7-7-5---7-7-5---|-7-7-5---7-7-5---|
A|------7-5-----7-5-|-----7-5-----7-5-|-------7-------7-|-------7-------7-|
E|------------------|-----------------|-----------------|-----------------|


G|-5-5-----5-5-----|-5-5-----5-5-----|-5-5-7-7-8-8-7-7-|-5-5-------------|
D|-----7-5-----7-5-|-----7-5-----7-5-|-----------------|-----8-8-7-7-6-6-|
A|-----------------|-----------------|-----------------|-----------------|
E|-----------------|-----------------|-----------------|-----------------|


G|------------------|-----------------|-----------------|-----------------|
D|--5-5-----5-5-----|-5-5-----5-5-----|-7-7-5---7-7-5---|-7-7-5---7-7-5---|
A|------7-5-----7-5-|-----7-5-----7-5-|-------7-------7-|-------7-------7-|
E|------------------|-----------------|-----------------|-----------------|


G|-5-5-----5-5-----|-5-5-----5-5-----|-5-5-7-7-8-8-7-7-|-5-5-------------|----------------|
D|-----7-5-----7-5-|-----7-5-----7-5-|-----------------|-----8-8-7-7-6-6-|-5--------------|
A|-----------------|-----------------|-----------------|-----------------|----------------|
E|-----------------|-----------------|-----------------|-----------------|----------------|


G|----------------|----------------|
D|----------------|----------------|
A|--------r-------|----------------|
E|----------------|--3-------------|



*************************

| / : slide up
| \ : slide down
| r : rest

*************************

in regular sequence!
Suggest correction
Give kudos to tab author, rate the tab!
1 2 3 4 5
comments
print report bad tab
guest
You may want to rate the tab now too:
select rating
Wanna post a correction for this tab? Suggest correction