Oops, an error
Loading. Please wait.

Life Must Be So Wonderful Tab

by Pulp
264 views 6 this week
no commentswrite comment
1 2 3 4 5
3 more votes to show rating
add to favorites
launch autoscroll
font size
0
reset
how to read this tab
guitar tuner
Autoscroll
slow
fast
+/-
esc
set tempo
stop
Help us to improve Ultimate-Guitar.com Take our survey!
×
Pulp
Life Must Be So Wonderful
(Jarvis Cocker, Russell Senior, Candida Doyle, Peter Mansell)

Intro/Verse
(drums)

----- --------------------------------|
----- -5---5-----5-3---3--------------|
-1s4- -------2-----------1---2-1----4-|
----- --------------------------------|
----- --------------------------------|
----- --------------------------------|

Life must be so wonderful living here on your own
Please call around to see
And maybe I've been loving you for too long
And now blind eyes watch you bleed

You rot in your bedroom, you cry on the phone
"Well, I'm sorry, but he's not at home"
You give me your secrets, you give me your heart
And I smile whilst you fall apart

Pre Chorus
-------------------------------------------|
-5---5-----5-----5-------------------------|
-------3-----3-----3-3-3-3-3-3-3-3-3-3-3-3-|
-------------------------------------------|
-------------------------------------------|
-------------------------------------------|

Oh no, please not now, can't you see there's no time?
No, I haven't the time
Can't you see there's no time?

C#m     A     D      E   Esus4 E
Oh...

 3x
----- -----------------|
----- -----------------|
-1s4- -4-4-4-4-4-4-4-4-|
----- -----------------|
----- -----------------|
----- -----------------|

C#m                            A
Now all our dreams melt in the sun
    D
And visions dwindle
Esus4         E   Esus4 E
One by one by one

Perhaps you should move somewhere far away
To another town
Where maybe they
Could see things in your way

"It shouldn't be like this, it shouldn't be hard"
I smile whilst you fall apart
"You're sorry, you're sorry" is all that you say
Well, I'd stop it, but I can't find a way

Your life must be so wonderful
Your visions die and fall

And in the end
Nothing ends
Just grows fainter
and farther away...
Suggest correction
Give kudos to tab author, rate the tab!
1 2 3 4 5
comments
print report bad tab
guest
You may want to rate the tab now too:
select rating
Wanna post a correction for this tab? Suggest correction