Oops, an error
Loading. Please wait.

Pencil Skirt chords

by Pulp
7,510 views 6 this week
2 commentsread comments
1 2 3 4 5
x 7
add to favorites
×
Save as Personal and add changes to this tab that will be seen only by you. Learn more ›
×
You can save this tab as Personal to edit and correct it or add notes. All changes will be seen only by you. Learn more »
launch autoscroll
font size
0
reset
transpose
0
reset
display chords
guitar tuner
edit
Autoscroll
slow
fast
+/-
esc
set tempo
stop
Strumming
There is no strumming pattern for this song yet. and get +5 IQ
   Title:   Pencil Skirt
   Artist:  Pulp
   Album:   Different Class
 Tabbed by: Fabian Valdivia




                        Pencil Skirt


         Riff 1                         Riff 2

      G          C                   G             C
 e|---3-5-3--0-------|          e|---3-5-3-------------|
 B|------------3-1---|          B|----------3-5-3------|
 G|------------------|          G|-----------------5---|
 D|------------------|          D|---------------------|
 A|------------------|          A|---------------------|
 E|------------------|          E|---------------------|


 Intro:  G   C  (Riff 1)


 C                            A           D              G     (Riff 2)
 When you raise your pencil skirt like a veil before my eyes
 C                       A             D              G         (Riff 2)
 Like the look upon his face as he's zipping up his flies, oh
 C       A        D                 G        (Riff 2)
 But I know that you're engaged to him, oh
 C      A         D                G
 But I know you want something to play with baby


 Em
 I'll be around when he's not in town, oh
 C
 Yeah I'll show you how you're doing it wrong, oh
 Em
 I really love it when you tell me to stop, oh oh
 D                  G
 Oh it's turning me on


 C                      A              D                      G    (Riff 2)
 Now you can tell some lies about the good times that you've had
 C                             A                   D            G
 But I've kissed your mother twice and now I'm working on your dad, oh baby


        Riff 3

      Em  
 e|----------0-0---|
 B|---3-4-5--0-0---|
 G|----------------|
 D|----------------|
 A|----------------|
 E|----------------|


 Em  (Riff 3)x4
 I'll be around when he's not in town, oh
 C
 Oh yeah, I'll show you how you're doing it wrong, oh
 Em   (Riff 3)x4
 I really love it when you tell me to stop, oh oh
 D                  G
 Oh it's turning me on


               SOLO

   C    A    D    G   (x2)
 
       
      Em
      C
      Em
 e|---0-0-0-0-0-0-1-0-1-0---3-5-----|
 B|---------------------------------|
 G|---------------------------------|
 D|---------------------------------|
 A|---------------------------------|
 E|---------------------------------|

      D
 
      G                          C
 e|---10-8-7-5--3-3-1-1-0-0----------|
 B|-------------------------3-3--1---|
 G|----------------------------------|
 D|----------------------------------|
 A|----------------------------------|
 E|----------------------------------|



 C                      A              D                 G    (Riff 1)
 If you look under the bed then I can see my house from here
 C                        A                     D           G
 So just lie against the wall and watch my conscience disappear, now baby oh


 Em
 Yeah, I'll be around when he's not in town, oh
 C
 Oh yeah, I'll show you how you're doing it wrong, oh
 Em
 I really love it when you tell me to stop, oh oh
 D                  G
 Oh it's turning me on, on, on, yeah

 Em
 I only come here cause I know it makes you sad
 C
 I only do it cause I know you know it's bad.
 Em
 Oh don't you know it's ugly and it shouldn't be like that.
 D                         G
 Oh but oh it's turning me on, on, on, on, on, on, on.


 C    A    D    G

            
            
Suggest correction
Creating personal tab
Creating personal tab
You can edit any tab online and save it as your Personal.

You can edit, replace or remove any tab part or add personal notes – all changes will be seen only by you.

Personal tabs can be accessed anytime from any device, even offline.
Learn more »
comments
print report bad tab
2 comments total.
+1 reply
radio supernova 51 Oct 16, 2010 04:57 AM

great tab, but first and second A in the verses should be Am.

0 reply
reedlo19841 38 Apr 21, 2017 06:28 AM

Riff 1 Riff 2

G C G C
e|---3-5-3--0-------| e|---3-5-3-------------|
B|------------3-1---| B|------------5-3------|
G|------------------| G|-----------------5---|
D|------------------| D|---------------------|
A|------------------| A|---------------------|
E|------------------| E|---------------------|

that's what I play riff 2

guest
You may want to rate the tab now too:
select rating
Wanna post a correction for this tab? Suggest correction