Oops, an error
Loading. Please wait.

Julep tab

736 views 12 this week
no commentswrite comment
1 2 3 4 5
3 more votes to show rating
add to favorites
×
Save as Personal and add changes to this tab that will be seen only by you. Learn more ›
×
You can save this tab as Personal to edit and correct it or add notes. All changes will be seen only by you. Learn more »
launch autoscroll
font size
0
reset
how to read this tab
guitar tuner
edit
Autoscroll
slow
fast
+/-
esc
set tempo
stop
Author
Alright, so there is a lot going on in the middle sections of 
this song and with so many stringed instruments
playing at the same time it's hard to say what exactly is the guitar part. 
With that said, I'm fairly certain I've at least got the main riff 100% right.

[Main Riff] 0:49

Chris doesn't play it like this, but the notes are the same. This sounds better
when played without accompaniment.

     Bm     Bm7       G                     G6
e|-7-7-7--5-5-5---------------------------|
B|-7-7-7--7-7-7----3-3-3------------------|
G|-7-7-7--7-7-7---0-0-0--4-----4--4-------|
D|-9-9-9--9-9-9--0-0-0--0-----4--2----------|
A|------------------2-2-2---2-----2--2----|
E|------------------3-3-3---3------3--3---|

I didn't bother with the harmonics on the second verse, sorry. I'm fairly certain
they are played by the banjo and fiddle anyway.

[Middle Section] 2:14

        A7/C#             Fm7/C#         D5 (keep playing it every beat for a while)
e|---------------------------------------------------------------------------|
B|-------------------------------------3-------------------------------------|
G|-----2-------2--------2-------2----2---------------------------------------|
D|---2--5---2---5----2---4---2------0----------------------------------------|
A|-4------4--------4--------4------------------------------------------------|
E|---------------------------------------------------------------------------|
                          
For this part play the same pattern as exemplified in the D/F# over these chords:

                              D/F#                  Asus4/E    DM7  DM7/C#
e|---------------|------5--------5-----5------------5------5----------|
B|---------------|--------7--------7---5------------3------3----------|
G|----2-----2---|---7---------7-------7------------6------6-----------|
D|--2--5--2--5-|-----------------------------------0------------------|
A|-4-----4------|-9--------9---------7-------------------4------------|
E|---------------|----------------------------------------------------|

[Main melody]

This is the banjo melody that has been popping up here and there throughout the
song. Played in round with the mandolin and guitar at around 3:16

e|----------------------------------|-----------------------------------------|
B|---------------------------------|------------------------------------------|
G|---------------------2----------|----------------------2--------------------|
D|---0-2---0-2---0-2--2-0------|---0-2---0-2---0-2----2-----0-----------------|
A|-4-----4------4----------4-2--|-4-----4------4-----------------4--2---------|
E|---------------------------------|------------------------------------------|

And while the fiddle plays the main melody:

     Bm/D                     D5                          Same pattern again over Asus2/E and  DM7 
e|--7-7-7-7-7-7-7-7----5-5-5-5-5-5-5-5-5-----------------------------------|
B|------------------------------------------------------------------------------|
G|--7-7-7-7-7-7-7-7----7-7-7-7-7-7-7-7-7-----------------------------------|
D|--7-7-7-7-7-7-7-7----7-7-7-7-7-7-7-7-7-------------------------------------|
A|-- 5-5-5-5-5-5-5-5----5-5-5-5-5-5-5-5-5-----------------------------------|
E|-------------------------------------------------------------------------|

        A7/C#             Fm7/C#         Fm/C# (listen for rhythm)
e|--------------------------------------2-------------------------------------|
B|-------------------------------------2--------------------------------------|
G|-----2-------2--------2-------2----2----------------------------------------|
D|---2--5---2---5----2---4---2------4-----------------------------------------|
A|-4------4--------4--------4--------4----------------------------------------|
E|----------------------------------------------------------------------------|

Those are all the different parts in the song.

Finally, it's never actually played on the guitar but just for the hell of it,
here's the rest of the main melody:

e|--------------------------------------------------------------|
B|--------------------------------------------------------------|
G|--------------------------------------------------------------|
D|----------------------2-----------------------4---------------|
A|--2-----2------2--------2-----2-----2-----2----2------------|
E|----4-5---4-5---4-5------3-5---3-5---3-5---------5-3-2----|
Suggest correction
Creating personal tab
Creating personal tab
You can edit any tab online and save it as your Personal.

You can edit, replace or remove any tab part or add personal notes – all changes will be seen only by you.

Personal tabs can be accessed anytime from any device, even offline.
Learn more »
Give kudos to tab author, rate the tab!
1 2 3 4 5
comments
print report bad tab
guest
You may want to rate the tab now too:
select rating
Wanna post a correction for this tab? Suggest correction