Oops, an error
Loading. Please wait.

Movement And Location Tab

46 views 1 this week
no commentswrite comment
1 2 3 4 5
3 more votes to show rating
add to favorites
launch autoscroll
font size
0
reset
how to read this tab
guitar tuner
Autoscroll
slow
fast
+/-
esc
set tempo
stop
Help us to improve Ultimate-Guitar.com Take our survey!
×
Author
Difficulty
intermediate
Here is a broken down version of the brilliant Punch Brothers song. You can find more notes to add to make a
fuller chord. For instance, you can use the D string and the G string during some of the instrumental parts
to play the octaves.  


[Intro]

e|----------------------------------|
B|----------------------------------|
G|----------------------------------|
D|-------------------9--9--9--9-----|
A|-7-7-7-7-7-7-7-7--10-10-10-10-----|
E|-7-7-7-7-8-8-8-8------------------| x2

e|------------------------------------------------------|
B|------------------------------------------------------|
G|------------------------------------------------------|
D|------------------7-7-7-7-----------7-7-7-7-7-7-------|
A|-7-7-7-7-7-7-7-7--8-8-8-8--5-5-5-5---------------7-7--|
E|-7-7-7-7-8-8-8-8-----------5-5-5-5--8-8-8-8-8-8-------| SLIDE UP TO

e|------------------------------------------------------|
B|------------------------------------------------------|
G|--9--9--9--9--9--9------------------------------------|
D|--9--9--9--9--9--9-------------------5-5/9------------|
A|-10-10-10-10-10-10--7-7--------------7-7/10-----------| Ending (A)--*LET IT RING*---
E|--------------------7-7--8-8-8-8-8-8------------------|


Repeat intro with "Did he ever live..."

...then instead of Ending (A), play this Ending (B)...

e|----------------------------------------------------------------------------------|
B|----------------------------------------------------------------------------------|
G|---9--9--9--9--9------------------------------------------------------------------|
D|---9--9--9--9--9---------------7-7--9--9---9-9-9-9-9-9---------------5-5--9--9----|
A|--10-10-10-10 10--7-7--7-7-7-7-5-5-10-10----------------7-7-7-7-7-7--7-7-10-10/14-|
E|------------------7-7--8-8-8-8-------------7-7-7-7-7-7--7-7-8-8-8-8---------------|


[Instrumental]

e|----------------------------------|
B|----------------------------------|
G|----------------------------------|
D|-------------------9--9--9--9-----|
A|-7-7-7-7-7-7-7-7--10-10-10-10-----|
E|-7-7-7-7-8-8-8-8------------------| x2

e|-----------------------------------------------------------------------------------------------|
B|-----------------------------------------------------------------------------------------------|
G|-----------------------------------------------------------------------------------------------|
D|------------------7-7-7-7----------------------------------------------------------------------|
A|-7-7-7-7-7-7-7-7--8-8-8-8--5-5-5-5--7-7-7-7-7-7--7-7--10-10-10-10-10-10--7-7---------7-7-10-10-|
E|-7-7-7-7-8-8-8-8-----------5-5-5-5--8-8-8-8-8-8--0-0---0-0--0--0--0--0---7-7-8-8-8-8-----------|

"If she'd raised her voice..."

Intro with ending (B) 

"...would the battle be lost..." and then strum
e|---------------------------------------------------------------------------|
B|---------------------------------------------------------------------------|
G|---------------------------------------------------------------------------|
D|---9--9--9--9--9--9--------------------------------------------------------|
A|--10-10-10-10-10-10--------------------------------------------------------|
E|---------------------------------------------------------------------------|


"You can watch...." 

e|----------------------------------|
B|----------------------------------|
G|----------------------------------|
D|-------------------9--9--9--9-----|
A|-7-7-7-7-7-7-7-7--10-10-10-10-----|
E|-7-7-7-7-8-8-8-8------------------| x2

e|--------------------------------------------------------|
B|--------------------------------------------------------|
G|--------------------------------------------------------|
D|------------------7-7-7-7-----------7-7-7-7-7-7-7-7-7-7-|
A|-7-7-7-7-7-7-7-7--8-8-8-8--5-5-5-5----------------------|
E|-7-7-7-7-8-8-8-8-----------5-5-5-5--8-8-8-8-8-8-8-8-8-8-|

e|--------------------------------------------------------------------------|
B|--------------------------------------------------------------------------|
G|--------------------------------------------------------------------------|
D|--------------------------------------------------10-10-------------------|
A|---------10-10-10-10-5-5-5-5-5-5 8-8-8-8-8-8-8-8--12-12-5-5-5-5-5-5-8-8---|
E|-6-6-6-6-----------------------------8-8-8-8-8-8--------------------------|

"...the battle is lost..."
e|---------------------------------------------------------------------------|
B|---------------------------------------------------------------------------|
G|---------------------------------------------------------------------------|
D|-------------10-10---------------------------------------------------------|
A|-8-8-8-8-8-8-12-12---------------------------------------------------------|
E|-8-8-8-8-8-8---------------------------------------------------------------|

e|-----------------------------------------------------------------------------|
B|-----------------------------------------------------------------------------|
G|-----------------------------------------------------------------------------|
D|-12-12-12-8-8-8-7-7-7------8-8-8--7-7-7-------8-8-8-5-5-5-10-10-10-8-8-8-8---|
A|----------------------5-5-5-------------5-5-5--------------------------------|
E|----------------------------------8-8-8-------------6-6-6----------6-6-6-6---|

e|---------------------------------------------------------------------------------------------------|
B|---------------------------------------------------------------------------------------------------|
G|---------------------------------------------------------------------------------------------------|
D|---------7-7-7-7-7-7---------------------7-7-7-7-7-7----------------------9-9-9-9-9-9--------------|
A|-5-5-8-8-------------------------5-5-8-8-------------------------7-7-10-10-------------------------|
E|---------------------5-5-6-6-6-6---------------------5-5-8-8-8-8----------------------7-7-8-8-8-8-8|

e|--------------------------|
B|--------------------------|
G|--------------------------|
D|------9--9----------------|
A|-7-7-10-10----------------|
E|--------------------------|

Play [Intro] Ending (A)

Hope this helps someone. Let me know if you have suggestions. I like playing this one and I'm always looking
for ways to improve it.


************************************

| x   Dead note
| g   Grace note
| (n) Ghost note
| h   Hammer-on
| p   Pull-off
| r   Release
| >   Accented note
| t   Tapping
| b   Bend
| br  Bend release
| pb  Pre-bend
| pbr Pre-bend release
| /   Slide up
| \   Slide down
| ~   Vibrato
| s   Slap
| P   Pop
| PM  Palm mute
| TR  Trill
| N   Tremolo

************************************
Suggest correction
Give kudos to tab author, rate the tab!
1 2 3 4 5
comments
print report bad tab
guest
You may want to rate the tab now too:
select rating
Wanna post a correction for this tab? Suggest correction