Oops, an error
Loading. Please wait.

Ilari E tab

15 views 1 this week
no commentswrite comment
1 2 3 4 5
3 more votes to show rating
add to favorites
×
Save as Personal and add changes to this tab that will be seen only by you. Learn more ›
×
You can save this tab as Personal to edit and correct it or add notes. All changes will be seen only by you. Learn more »
launch autoscroll
font size
0
reset
how to read this tab
guitar tuner
edit
Autoscroll
slow
fast
+/-
esc
set tempo
stop
apla gente...acabo d escvchar esta cancion y esta de la ptm asi
q no pvde evitar sakrla. ahi les va ojala les gvste...


[Ilari E]


1|-----------------------------------------------|
2|-----------------------------------------------|
3|---------------77----------77------------------|
4|-55------------77--55-4----77--5-4-7--55-------|
5|-55--55-3-2-3--55-------5--55---------55-2-3-5-|
6|-33-----------------------------------33-------|

1|-----------------------------------------------|
2|-----------------------------------------------|
3|---------------77----------7--5--4--2----------|
4|-55------------77--55-4----7--5--4--2--5-5555--|
5|-55--55-3-2-3--55-------5--5--3--2--0--5-------|
6|-33------------------------------------3-------|
                                             ^
                                             |
_                                                         _

aki en esta ultima tab, al final otra guitarra hace esto:

 1|-3333-|  al mismo tiempo q haces:  4|-5555-|
_                                                         _


1|--------------------------------------------------------|
2|--------------------------------------------------------|
3|-------------7--7--------------------------7--7-5-3-2---|
4|-5-----------7--7-----------5--5-----------7--7-5-4-2-5-|
5|-5-5-7-5-7-5-5--5-5-7-5-7-5-5--5-5-7-5-7-5-5--5-3-2-0-5-|
6|-3--------------------------3--3----------------------3-|


                 D5                 G5
Es la hora es la hora, es la hora de jugar
                      D5                  G5
Brinca brinca palmas palmas y saltando sin parar

1|-15-----|
2|---15---|
3|-----12-|

                    D5                     G5
Un pasito para el frente y  un pasito para atras
                  D5                     G5
Jugaremos todos juntos, ser feliz esta de mas
                        ^
                        |
                      4|-4--------|
                      5|---5-3-2--|
                      6|--------3-|

 D5
Ilarilarilari E  O O O
  ^
  |
1|-3333333-|

D5
 Ilarilarilari E  O O O
G5
 Ilarilarilari E  O O O
D5
Este es hecho de Punk2flaz y no paremos de saltar
D5
 Ilarilarilari E  O O O
D5
 Ilarilarilari E  O O O
G5
 Ilarilarilari E  O O O
D5
Este es hecho de Punk2flaz y no paremos de pogear
D5
 Ilarilarilari E aja!


1|--------------------------------------------------------|
2|--------------------------------------------------------|
3|-------------7--7--------------------------7--7-5-3-2---|
4|-5-----------7--7-----------5--5-----------7--7-5-4-2-5-|
5|-5-5-7-5-7-5-5--5-5-7-5-7-5-5--5-5-7-5-7-5-5--5-3-2-0-5-|
6|-3--------------------------3--3----------------------3-|


  D5  G5 x4 - P.M.
*pito*  vamos niños a jugar...

  D5  G5 x12
 EEEEEEEEEEEEHHH


ahi termina la cancion
esta cancion pone vn hvevo asi qve xfavor califiqvenla!

            
            
Suggest correction
Creating personal tab
Creating personal tab
You can edit any tab online and save it as your Personal.

You can edit, replace or remove any tab part or add personal notes – all changes will be seen only by you.

Personal tabs can be accessed anytime from any device, even offline.
Learn more »
Give kudos to tab author, rate the tab!
1 2 3 4 5
comments
print report bad tab
guest
Wanna post a correction for this tab? Suggest correction