Oops, an error
Loading. Please wait.

Te Quiero tab

26 views 1 this week
no commentswrite comment
1 2 3 4 5
3 more votes to show rating
add to favorites
×
Save as Personal and add changes to this tab that will be seen only by you. Learn more ›
×
You can save this tab as Personal to edit and correct it or add notes. All changes will be seen only by you. Learn more »
launch autoscroll
font size
0
reset
how to read this tab
guitar tuner
edit
Autoscroll
slow
fast
+/-
esc
set tempo
stop
Intro x 2

     G                     Em                  C
1:-------3-------3-----|-------------------|-------------------|
2:-3-3-3---3---3---3---|-5-5-5-------5-----|-5-5-5-------5-----|
3:-----------4-------4-|-------4---4---4---|-------5---5---5---|
4:---------------------|---------5-------5-|---------5-------5-|
5:---------------------|-------------------|-------------------|
6:---------------------|-------------------|-------------------|

   D7
1:---------------------|
2:-7-7-7-------7-------|
3:-------5---5---5-----|
4:---------7-------7---|
5:---------------------|
6:---------------------|


                 G
Como te voy a dejar
                    C
si vives dentro de mí
                 D7
nunca podré olvidar
                     G   D7
lo que luche yo por ti


                      G
Como te voy a dejar
                   C
si eres todo para mí
                 D7
a nadie quise jamás
                  G   D7
como te amo yo a ti


     G                   C
Pero ay, si mi vida quisiera
                D7
entregártela entera
                G   D7
para hacerte feliz


     G                      C
Pero ay, ni lo pienses siquiera
                     D7
te amaré hasta que mueras
              G   D7
yo nací para ti


            G
Es que tú tienes algo especial
         Em
muy diferente a las demás
          C
algo que nunca en otro amor
             D7
jamás en la vida iré a encontrar


          G
Porque tú eres para mí
             Em
la luz que alumbra mi llegar
           C
tú eres la única mujer
           D7
que me ayudado a mi triunfar


           G
Te quiero yo
        C
de corazón
           D7
y junto a ti
          G   D7
yo soy feliz


        G
Aquí estoy
             C
siempre estaré
         D7
y nunca yo
        G
te dejaré


               G
Nunca sería capaz
                C
de alejarme de ti
                  D7
si sé que tu corazón
                  G   D7
solo me quiere a mí


     G                   C
Pero ay, demasiado te quiero
                 D7
siempre seré sincero
             G   D7
viviré para ti


     G                    C
Pero ay, si supieras que tú
                   D7
tú me haces tanta falta
                   G   D7
cuando no estás aquí


          G
Porque tú eres mi amor
      Em
eres sencilla y natural
         C
tú me dominas de una vez
             D7
tus ojos me hablan al mirar


          G
Me gusta como haces el amor
          Em
me gusta tu forma de ser
         C
por eso te prometeré
          D7
que cuidaré de ti mujer


           G
Te quiero yo
        C
de corazón
           D7
y junto a ti
          G   D7
yo soy feliz


        G
Aquí estoy
             C
siempre estaré
         D7
y nunca yo
        G
te dejaré

Outro x 2

     G                     Em                  C
1:-------3-------3-----|-------------------|-------------------|
2:-3-3-3---3---3---3---|-5-5-5-------5-----|-5-5-5-------5-----|
3:-----------4-------4-|-------4---4---4---|-------5---5---5---|
4:---------------------|---------5-------5-|---------5-------5-|
5:---------------------|-------------------|-------------------|
6:---------------------|-------------------|-------------------|

   D7
1:---------------------|
2:-7-7-7-------7-------|
3:-------5---5---5-----|
4:---------7-------7---|
5:---------------------|
6:---------------------|

Espero que me la acepten, pues está es mi primera transcripción.. Gracias..
Suggest correction
Creating personal tab
Creating personal tab
You can edit any tab online and save it as your Personal.

You can edit, replace or remove any tab part or add personal notes – all changes will be seen only by you.

Personal tabs can be accessed anytime from any device, even offline.
Learn more »
Give kudos to tab author, rate the tab!
1 2 3 4 5
comments
print report bad tab
guest
Wanna post a correction for this tab? Suggest correction