Oops, an error
Loading. Please wait.

Dark Days chords

by Pup
12,201 views 150 this week
no commentswrite comment
1 2 3 4 5
x 19
add to favorites
×
Save as Personal and add changes to this tab that will be seen only by you. Learn more ›
×
You can save this tab as Personal to edit and correct it or add notes. All changes will be seen only by you. Learn more »
launch autoscroll
font size
0
reset
transpose
0
reset
display chords
guitar tuner
edit
Autoscroll
slow
fast
+/-
esc
set tempo
stop
Strumming
There is no strumming pattern for this song yet. and get +5 IQ
[Intro]
C    Em    Am    x2

If you want to play the riff it goes like this
If you slide up to the first note of each part it sounds cooler
e|----8---12------------7------|
B|------8-----------8-----10---|
G|--9-----------------7--------|
D|----------------9------------| x2
A|-----------------------------|
E|-----------------------------|

[Verse]
C
C                   Em
This endless night
     Am
This funeral dirge
C                 Em
We celebrate life
       Am
At the end of the earth
F                  Em
When everything is gone
            G               C
There'll be nothing left to lose

C    Em    Am    (x2)    The riff from the intro plays over these chords

C                   Em
The ice is closing in
    Am
And nothing will remain
C                        Em
We took what we could get
       Am
And we burned it anyway
F              Em
With all those secrets
              G                  C      
We swore we'd take 'em to the grave
Em             Am           C        
The light will falter and will fade
Em         Am 
And in the darkness we'll say

[Chorus]
F                          C
This winter hasn't been so rough
F                           C      Em
Oh it was cold but still it wasn't cold enough
F                              C
To freeze the blood beneath my spine
       Em           Am  G  Dm  F
And at least I survived

C    Em    Am     (x2)    The riff from the intro plays over these chords

C                            Em
We're sleeping through the days
     Am
And sinking like a ship
C                  Em
We're wasting away
Am
Bit by bit
F              Em
Everyone is gone
    G                   C       
And everything is changed
Em       Am        C   
It won't ever be the same
Em              Am
And when it's over we'll say

[Chorus]
F                          C
This winter hasn't been so rough
F                           C       Em
Oh it was cold but still it wasn't cold enough
F                              C
To freeze the blood beneath my spine
       Em           Am  G  Dm  F  Am  G  Dm  F  F
And at least I survived


[Bridge]
e|1-----0------------------|1-----0-----------------|1----0---------------|1-----0-----------------|
B|--3-----1------0---------|--3-----1------0--------|--3----1-----0---1-0-|--3-----1-----0---------|
G|-------------2------0----|-------------2-----0----|-----------2---------|------------2------0----|
D|----------------------2--|---------------------2--|---------------------|---------------------2--|
A|-------------------------|------------------------|---------------------|------------------------|
E|-------------------------|------------------------|---------------------|------------------------|

(play one phrase of this riff or the chords below with before each line)

C
We've had some dark days
Em
We're in the thick of it now
Am
And when the ice breaks
Em
There will be no one around

C
We've had some dark days
Em
We're in the thick of it now
Am
And when the ice breaks
Em
There will be no one around

[Chorus]
F                          C
This winter hasn't been so rough
F                     C      Em
Oh it was cold but it wasn't cold enough
F                              C
To freeze the blood beneath my spine
       Em          Am   G
And at least I survived
F                          C
This winter hasn't been so rough (We've had some dark days)
F                           C      Em
Oh it was cold but still it wasn't cold enough (We're in the thick of it now)
F                              C
To freeze the blood beneath my spine (And when the ice breaks)
   Em             Am  G  Dm  F  Am  G  Dm  F  Am  G  Dm  F
At least I'll survive

[Outro]
C    Em    Am    x2

If you want to play the riff it goes like this
If you slide up to the first note of each part it sounds cooler
e|----8---12------------7------|----8---12-------------------|
B|------8-----------8-----10---|------8---------8-8---10-10--|
G|--9-----------------7--------|--9--------------------------|
D|----------------9------------|-----------------------------| 
A|-----------------------------|-----------------------------|
E|-----------------------------|-----------------------------|

            
            
Suggest correction
Creating personal tab
Creating personal tab
You can edit any tab online and save it as your Personal.

You can edit, replace or remove any tab part or add personal notes – all changes will be seen only by you.

Personal tabs can be accessed anytime from any device, even offline.
Learn more »
comments
print report bad tab
guest
You may want to rate the tab now too:
select rating
Wanna post a correction for this tab? Suggest correction