Oops, an error
Loading. Please wait.

Doubts Tab

by Pup
517 views 57 this week
no commentswrite comment
1 2 3 4 5
2 more votes to show rating
add to favorites
launch autoscroll
font size
0
reset
how to read this tab
guitar tuner
Autoscroll
slow
fast
+/-
esc
set tempo
stop
Help us to improve Ultimate-Guitar.com Take our survey!
×
Author
Difficulty
novice
About this tab version
Simple version for one guitar. Was this info helpful? Yes No
Intro
E|---------------------------------------------------x------
B|---------------------------------------------------x------
G|-xx5b---6-6-3-----6-6-3-----6-6-3-----6-6-3--------x------
D|-xx5b---6-6-3-3---6-6-3-3---6-6-3-3---6-6-3-3---4-4x------
A|-xx3b---4-4-1-3---4-4-1-3---4-4-1-3---4-4-1-3---4-4x------
E|--------------1---------1---------1---------1---2-2x------

Verse 1

  (palm muted)
E|----------------------------------------------------------
B|----------------------------------------------------------
G|-6-----3--6--6-----3--6-----------------------------------
D|-6--3--3--6--6--3--3--6-----------------------------------
A|-4--3--1--4--4--3--1--4-----------------------------------
E|----1-----------1-----------------------------------------

E|----------------------------------------------------------
B|-------------------------------------2-6-10---------------
G|-6--------6--6--------6--3-----2--------------------------
D|-6--3--4--6--6--3--4--6--4-----3--------------------------
A|-4--3--4--4--4--3--4--4--4-----3--------------------------
E|----1--2--------1--2-----2-----1--------------------------

Chorus
(note the unusual rhythm here, the chord lengths go 3/2/3/2/3/2/3/3)

E|----------------------------------------------------------
B|----------------------------------------------------------
G|----8----6----8-----6-----8----6--------------------------
D|-8--8-4--6-8--8--6--6--8--8-4--6-6--4---------------------
A|-8--6-4--4-8--6--6--4--8--6-4--4-6--4---------------------
E|-6----2----6-----4-----6----2----4--2---------------------

(Riff from Intro)

Verse 2

E|----------------------------------------------------------
B|----------------------------------------------------------
G|-6-----------------6--------------------------------------
D|-6-----3--4-----6--6-----3--4-----6-----------------------
A|-4-----3--4-----6--4-----3--4-----6-----------------------
E|-------1--2-----4--------1--2-----4-----------------------

E|----------------------------------------------------------
B|----------------------------------2-6-10------------------
G|-3-----2-----8-----6-----3-----2--------------------------
D|-4-----3-----8-----6-----4-----3--------------------------
A|-4-----3-----6-----4-----4-----3--------------------------
E|-2-----1-----------------2-----1--------------------------

(Chorus)

Bridge

E|----------------------------------------------------------
B|----------------------------------------------------------
G|-6-6-15-14--8---3---6-6-15-14---8-6-3---------------------
D|-6-6-x--x---8---3---6-6-x--x----8-6-3---------------------
A|-4-4-13-12--6---1---4-4-13-12---6-4-1---------------------
E|----------------------------------------------------------

E|----------------------------------------------------------
B|----------------------------------------------------------
G|-3-----6---8-6-3--3-----6-2--2--2--xx5b-------------------
D|-3--6--6---8-6-3--3--6--6-3--3--3--xx5b-------------------
A|-1--6--4---6-4-1--1--6--4-3--3--3--xx3b-------------------
E|----4----------------4----1--1--1-------------------------
   PM PM PM 

(Chorusx2)

Outro

E|----------------------------------------------------------
B|----------------------------------------------------------
G|--6-6-3-----6-6-3-----6-6-3-----6-6-3---------------------
D|--6-6-3-3---6-6-3-3-4-6-6-3-3---6-6-3-7-------------------
A|--4-4-1-3---4-4-1-3-4-4-4-1-3---4-4-1-7-------------------
E|--------1---------1-2-------1---------5-------------------





Suggest correction
Give kudos to tab author, rate the tab!
1 2 3 4 5
comments
print report bad tab
guest
You may want to rate the tab now too:
select rating
Wanna post a correction for this tab? Suggest correction