Oops, an error
Loading. Please wait.

Dvp Bass Tab

by Pup
517 views 39 this week
1 commentread comment
1 2 3 4 5
2 more votes to show rating
add to favorites
launch autoscroll
font size
0
reset
guitar tuner
Autoscroll
slow
fast
+/-
esc
set tempo
stop
Help us to improve Ultimate-Guitar.com Take our survey!
×
Author
Difficulty
Tuning
novice
D# G# C# F# A# D#
PUP - DVP

TUNING - Eb


[Intro]

F#|-----------------------------------------------------------|
C#|-----------------------------------------------------------|
G#|-----------------------------------------------------------|
D#|-3-3-3--3-3-3--7-7-7--7-7-7--8-8-8--8-8-8--3-3-3–-10-10-10-|

F#|--------------------------------------------------------|
C#|-5-5-5--5-5-5--4-4-4--4-4-4--2-2-2--2-2-2--5-5-5--4-4-4-|
G#|--------------------------------------------------------|
D#|--------------------------------------------------------|

F#|------------------------------|
C#|------------------------------|
G#|-3-3-3-3--3-3-3-3--3-3-3-3--3-|
D#|------------------------------|


[Verse]

  (You're sister thinks that i'm a freak)
F#|------------------------------------------|-----------------------------------------|
C#|------------------------------------------|-----------------------------------------|
G#|-------------2--2--22---------------------|-------------2--2--22-------------3x3x3--|
D#|--3--3--33-------------0--0--00--0--0--00-|--3--3--33--------------0--0--00---------|

  (I get so drunk that I can't speak)
F#|------------------------------------------|----------------------------------|
C#|------------------------------------------|----------------------------------|
G#|-------------2--2--22---------------------|-3-3-3-3-3-3-3-3--5-5-5-5-5-5-5-5-| 
D#|--3--3--33-------------0--0--00--0--0--00-|----------------------------------|


[Chorus]

  (oooooooo)                 (ooooooo)                                       (She say's I need to grow up)
F#|-------------------------|--12~---11~---9~---12~---11~--|--------------------------------xxxxxx|
C#|-------------------------|------------------------------|--------------------------------xxxxxx|
G#|--------2~---3~------5~--|------------------------------|--3-3-3-3--3-3-3-3--3-3-3-3--3--xxxxxx|
D#|---3~------------3~------|------------------------------|--------------------------------xxxxxx|


[Post-Chorus]

F#|------------------------------------------|--------------------------|
C#|------------------------------------------|--------------------------|
G#|-------------2--2--22---------------------|------------2--2--22--7~~~|
D#|--3--3--33-------------0--0--00--0--0--00-|--3--3--33---------=------|


[Verse]

   (Drivin fast to get away)                                          (Don Valley Parkway)
F#|------------------------------------------|------------------------------------|
C#|------------------------------------------|------------------------------------|
G#|-------------2--2--22---------------------|-------------2--2--22-----------3-3-| 
D#|--3--3--33-------------0--0--00--0--0--00-|--3--3--33---------------0-0-0------|


F#|------------------------------------------|----------------------------------|
C#|------------------------------------------|----------------------------------|
G#|-------------2--2--22---------------------|-3-3-3-3-3-3-3-3--5-5-5-5-5-5-5-5-|
D#|--3--3--33-------------0--0--00--0--0--00-|----------------------------------|


[Chorus]

  (oooooooo)                                                                   (She say's I need to grow up)
F#|-------------------------|--12~---11~---9~---12~---11~--|-------------------------------|
C#|-------------------------|------------------------------|-------------------------------|
G#|--------2~---3~------5~--|------------------------------|--3-3-3-3--3-3-3-3--3-3-3-3--3-|
D#|---3~------------3~------|------------------------------|-------------------------------|


[Break]

F#|------------------------------------|-----------------------------------|
C#|------------------------------------|-----------------------------------|
G#|-3--3-3---3--3-3--------------------|-3--3-3---3--3-3-------------------|
D#|-------------------3--3-3---3-3-3-3-|-------------------3--3-3---3--3-3-|


F#|------------------------------------|-------------5~-|
C#|------------------------------------|-----4~--7~-----|
G#|-3--3-3---3--3-3--------------------|-5~-------------| 
D#|-------------------3--3-3---3-3-3-3-|----------------|


[Bridge]

 (I drink till I...)                                                         
F#|----------------------~-----------|
C#|----------------------------------|
G#|--3--3--3--3----------------------| 
D#|---------------3--3--33--3--3--33-|(x3)


  (anymoreeee...)
F#|-------------------~--------------5\0|
C#|------------4--4--44---7--7--77------|
G#|-5--5--55----------------------------| 
D#|-------------------------------------|


[Outro Pre-Chorus]

  (oooooooo)                      (oooooooo)                                       
F#|------------------~-------------------|-------------------------------------|
C#|--------------------------------------|-5---5-5---4---4-4---2---2-2---5---4-|
G#|------------2---2-2---3---3-3-------5~|-------------------------------------|
D#|--3---3-3-----------------------3~----|-------------------------------------|


[Outro]

F#|------------------~---------------------------------------------------------------------|
C#|----------------------------------------------------------------------------------------|
G#|------------------------2--2--22---2--2--22---3--3--33---3--3--33--------------5--5--55-|
D#|--3--3--33---3--3--33-----------------------------------------------3--3--33------------|

F#|------------------~---------------------------------------------------------------------|
C#|--5--5--55---5--5--55---4--4--44---4--4--44---2--2--22---2--2--22---5--5--55---4--4--44-|
G#|----------------~-----------------------------------------------------------------------|
D#|----------------~-----------------------------------------------------------------------|

F#|------------------~----|
C#|-----------------------|
G#|--3-3-3-3-3~~~~--------|
D#|------------------3~~~~|


************************************

| (x)   Mute string
| (~)   Let note ring out
| (/)   Slide down

************************************
Suggest correction
Give kudos to tab author, rate the tab!
1 2 3 4 5
comments
print report bad tab
1 comment total.
0 reply
mike74 32 Sep 28, 2016 06:53 PM

rok n rol.

guest
You may want to rate the tab now too:
select rating
Wanna post a correction for this tab? Suggest correction