Oops, an error
Loading. Please wait.

Dvp tab

by Pup
11,806 views 162 this week
2 commentsread comments
1 2 3 4 5
x 14
add to favorites
×
Save as Personal and add changes to this tab that will be seen only by you. Learn more ›
×
You can save this tab as Personal to edit and correct it or add notes. All changes will be seen only by you. Learn more »
launch autoscroll
font size
0
reset
how to read this tab
guitar tuner
edit
Autoscroll
slow
fast
+/-
esc
set tempo
stop
Author
Tuning: E flat (disregard the standard tuning on the left hand side of the tabs)

[Intro ]
(Guitar 1)
(tremolo picked)
e|-------------------|-------------------|---------------|------------------|
B|-------------------|-------------------|---------------|------------------|
G|-------------------|-------------------|---------9--11-|------------------|
D|--9-----12-9-12-9--|--9-----12-9-12-9--|--10-----------|--9----9h10-7-----|  (x2)
A|-------------------|-------------------|---------------|------------------|
E|-------------------|-------------------|---------------|------------------|

e|---------------------------|
B|---------------------13----|
G|--------9-----12-----------|
D|--10-----------------------|
A|---------------------------|
E|---------------------------|

(Guitar 2)
(rhythm on top)
e|-------------------|-------------------|---------------|------------------|
B|-------------------|-------------------|---------------|------------------|
G|-------------------|-------------------|---------------|------------------|
D|--5----------------|--9----------------|--10-----------|--5----12---------|  (x2)
A|--5----------------|--9----------------|--10-----------|--5----12---------|
E|--3----------------|--7----------------|--8------------|--3----10---------|

e|---------------------------|
B|---------------------------|
G|--5------------------------|
D|--5------------------------|
A|--3------------------------|
E|---------------------------|

[Verse 1]
(Guitar 1)
(slightly different chords than rhythm guitar)
e|----3-------7-----------------|--3-----7-------------------|
B|----3-------7------7----------|--3-----7-----7----5--------|
G|----4-------8------7----------|--4-----8-----7----5--------|
D|----5-------9------5----------|--5-----9-----5----5--------|
A|----5-------9------5----------|--5-----9-----5----3--------|
E|----3-------7-----------------|--3-----7-------------------|

e|----3-------7-----------------|----------------------------------|
B|----3-------7------7----------|----------------------------------|
G|----4-------8------7----------|----------------------------------|
D|----5-------9------5----------|----------------------------------|
A|----5-------9------5----------|--3-2-3-2-3-2-3-2-5-3-5-3-5-3-5-3-|
E|----3-------7-----------------|----------------------------------|

(Guitar 2)
e|------------------------------|----------------------------|
B|------------------------------|----------------------------|
G|------------4-----------------|--------4----------5--------|
D|----5-------4------2----------|--5-----4-----2----5--------|
A|----5-------2------2----------|--5-----2-----2----3--------|
E|----3--------------0----------|--3-----------0-------------|

e|------------------------------|----------------------------|
B|------------------------------|----------------------------|
G|------------4-----------------|--5-----------7-------------|
D|----5-------4------2----------|--5-----------7-------------|
A|----5-------2------2----------|--3-----------5-------------|
E|----3--------------0----------|----------------------------|

[Chorus]
(lead guitar playing a slight variation of the chords below)
e|--3----------------|--7----------------|--8------------|--3----10---------|
B|--3----------------|--7----------------|--8------------|--3----10---------|
G|--4----------------|--8----------------|--9------------|--4----11---------|
D|--5----------------|--9----------------|--10-----------|--5----12---------|  (x2)
A|--5----------------|--9----------------|--10-----------|--5----12---------|
E|--3----------------|--7----------------|--8------------|--3----10---------|

e|---------------------------------------------------------------|
B|---------------------------------------------------------------|
G|---------------------------------------------------------------|
D|---------------------------------------------------------------|
A|--3-2-3-2-3-2-3-2-3-2-3-2-3------------------------------------|
E|---------------------------------------------------------------|

[Post-Chorus]
e|----3-------7--------------------------------------|--3-----7-------------------|
B|----3-------7------7-------------------------------|--3-----7-----(12)----------|
G|----4-------8------7-------------------------------|--4-----8-----(12)----------|
D|----5-------9------5-(or an E power chord)---------|--5-----9-----(12)----------|
A|----5-------9------5-------------------------------|--5-----9-----(12)----------|
E|----3-------7--------------------------------------|--3-----7-------------------|

[Verse 1]
(Guitar 1)
(slightly different chords than rhythm guitar)
(only difference is the staccato 'Don valley parkway' part)
e|----3-------7-----------------|--3-----7-------------------|
B|----3-------7------7----------|--3-----7-----7----5--------|
G|----4-------8------7----------|--4-----8-----7----5--------|
D|----5-------9------5----------|--5-----9-----5----5--------|
A|----5-------9------5----------|--5-----9-----5----3--------|
E|----3-------7-----------------|--3-----7-------------------|

e|----3-------7-----------------|----------------------------------|
B|----3-------7------7----------|----------------------------------|
G|----4-------8------7----------|----------------------------------|
D|----5-------9------5----------|----------------------------------|
A|----5-------9------5----------|--3-2-3-2-3-2-3-2-5-3-5-3-5-3-5-3-|
E|----3-------7-----------------|----------------------------------|

[Chorus]
(lead guitar playing a slight variation of the chords below)
e|--3----------------|--7----------------|--8------------|--3----10---------|
B|--3----------------|--7----------------|--8------------|--3----10---------|
G|--4----------------|--8----------------|--9------------|--4----11---------|
D|--5----------------|--9----------------|--10-----------|--5----12---------|  (x2)
A|--5----------------|--9----------------|--10-----------|--5----12---------|
E|--3----------------|--7----------------|--8------------|--3----10---------|

e|---------------------------------------------------------------|
B|---------------------------------------------------------------|
G|---------------------------------------------------------------|
D|---------------------------------------------------------------|
A|--3-2-3-2-3-2-3-2-3-2-3-2-3------------------------------------|
E|---------------------------------------------------------------|

[Bridge part 1]
(Guitar 1)
(tremolo picked)
e|-------------------|-------------------|---------------|------------------|
B|-------------------|-------------------|---------------|------------------|
G|-------------------|-------------------|---------9--11-|------------------|
D|--9-----12-9-12-9--|--9-----12-9-12-9--|--10-----------|--9----9h10-7-----|  
A|-------------------|-------------------|---------------|------------------|
E|-------------------|-------------------|---------------|------------------|

e|-------------------|-------------------|----------------------------------|
B|-------------------|-------------------|-------------------------13-------|
G|-------------------|-------------------|---------9------11--12------------|
D|--9-----12-9-12-9--|--9-----12-9-12-9--|--10------------------------------|  
A|-------------------|-------------------|----------------------------------|
E|-------------------|-------------------|----------------------------------|

(Rhythm just plays power chords over top)
e|-------------------|-------------------|---------------|------------------|
B|-------------------|-------------------|---------------|------------------|
G|--5----------------|-------------------|--5------------|------------------|
D|--5----------------|--5----------------|--5------------|--5---------------|  
A|--3----------------|--5----------------|--3------------|--5---------------|
E|-------------------|--3----------------|---------------|--3---------------|

e|-------------------|-------------------|----------------------------------|
B|-------------------|-------------------|----------------------------------|
G|--5----------------|-------------------|--7-------------------------------|
D|--5----------------|--5----------------|--7-------------------------------|  
A|--3----------------|--5----------------|--5-------------------------------|
E|-------------------|--3----------------|----------------------------------|

[Bridge part 2]
e|--8----------------|--3----------------|--8-------------|--3---------------|
B|--8----------------|--3----------------|--8-------------|--3---------------|
G|--9----------------|--4----------------|--9-------------|--4---------------|
D|--10---------------|--5----------------|--10------------|--5---------------|  
A|--10---------------|--5----------------|--10------------|--5---------------|
E|--8----------------|--3----------------|--8-------------|--3---------------|

e|--8----------------|--3----------------|----------------------------------|
B|--9----------------|--3----------------|--3-------------------------------|
G|--10---------------|--4----------------|--5-------------------------------|
D|--10---------------|--5----------------|--4-------------------------------|  
A|--10---------------|--5----------------|--5-------------------------------|
E|--8----------------|--3----------------|----------------------------------|

[Chorus]
(lead guitar playing a slight variation of the chords below)
(staccato rhythm (half time thing))
e|--3----------------|--7----------------|--8------------|--3----10---------|
B|--3----------------|--7----------------|--8------------|--3----10---------|
G|--4----------------|--8----------------|--9------------|--4----11---------|
D|--5----------------|--9----------------|--10-----------|--5----12---------|  (x2)
A|--5----------------|--9----------------|--10-----------|--5----12---------|
E|--3----------------|--7----------------|--8------------|--3----10---------|

e|---------------------------------------------------------------|
B|---------------------------------------------------------------|
G|---------------------------------------------------------------|
D|---------------------------------------------------------------|
A|--3-2-3-2-3-2-3-2-3-2-3-2-3------------------------------------|
E|---------------------------------------------------------------|

[Chorus]
(No capo variation)
(lead guitar playing a slight variation of the chords below)
e|--3----------------|--7----------------|--8------------|--3----10---------|
B|--3----------------|--7----------------|--8------------|--3----10---------|
G|--4----------------|--8----------------|--9------------|--4----11---------|
D|--5----------------|--9----------------|--10-----------|--5----12---------|  (x2)
A|--5----------------|--9----------------|--10-----------|--5----12---------|
E|--3----------------|--7----------------|--8------------|--3----10---------|

e|---------------------------------------------------------------|
B|---------------------------------------------------------------|
G|---------------------------------------------------------------|
D|---------------------------------------------------------------|
A|--3-2-3-2-3-2-3-2-3-2-3-2-3------------------------------------|
E|---------------------------------------------------------------|

(End on a G power chord)


************************************

| h    Hammer-on
| (n)  Ghost note

************************************

            
            
Suggest correction
Creating personal tab
Creating personal tab
You can edit any tab online and save it as your Personal.

You can edit, replace or remove any tab part or add personal notes – all changes will be seen only by you.

Personal tabs can be accessed anytime from any device, even offline.
Learn more »
comments
print report bad tab
2 comments total.
0 reply
EpicFlutist 10 Jun 21, 2017 01:01 PM

Great tab! I think the end of the intro is
D--9----7h9----7-----------|
But maybe what you've got on this tab is what PUP actually plays in the recording; this is just what I think i hear.

guest
You may want to rate the tab now too:
select rating
Wanna post a correction for this tab? Suggest correction