Oops, an error
Loading. Please wait.

If This Tour Doesnt Kill You I Will tab

by Pup
8,989 views 135 this week
2 commentsread comments
1 2 3 4 5
x 18
add to favorites
×
Save as Personal and add changes to this tab that will be seen only by you. Learn more ›
×
You can save this tab as Personal to edit and correct it or add notes. All changes will be seen only by you. Learn more »
launch autoscroll
font size
0
reset
how to read this tab
guitar tuner
edit
Autoscroll
slow
fast
+/-
esc
set tempo
stop
If this tour doesn't kill you...
Eb|--------------------------------------------------------------------| (x4)
Ab|--------------------------------------------------------------------|
Db|----4---4---4---4---4---4---4---4---4---4---4---4---4---4---4---4---|
Gb|--------------------------------------------------------------------|
Bb|----------------------------------3---3---3---3---3---3---3---3-----|
Eb|--3---3---3---3---5---5---5---5-------------------------------------|

Can erase...
Eb|--------------------------------------------------------------------| (x1)
Ab|--------------------------------------------------------------------|
Db|----4---4---4---4---4---4---4---4---4---4---4---4---4---4---4---4---|
Gb|--------------------------------------------------------------------|
Bb|--0---0---0---0---3---3---3---3-------------------------------------|
Eb|----------------------------------3---3---3---3---3---3---3---3-----|

For a second, let's be honest...
Eb|------------------| 
Ab|------------------|
Db|------------------|
Gb|--7---10-9-5---5--|
Bb|--7---10-9-5---5--|
Eb|--5---8--7-3---3--|

Everything you do...
Eb|------------------| 
Ab|------------------|
Db|--7-------9---9---|
Gb|--7---9---9---9---|
Bb|--5---9---7---7---|
Eb|------7-----------|

And if this tour doesn't kill you, buddy I'm on it...
Eb|-------------------------| 
Ab|-------------------------|
Db|-------------------------|
Gb|--7---10---5-5-5-5-5555-5|
Bb|--7---10---5-5-5-5-5555-5|
Eb|--5---8----3-3-3-3-3333-5|

Eb|------------------------------------------| (x1)
Ab|------------------------------------------|
Db|------------------------------------------|
Gb|-1010101010---10---5---9-9-9-9-9---9---5--|
Bb|-1010101010---10---5---9-9-9-9-9---9---5--|
Eb|-8-8-8-8-8----8----3---7-7-7-7-7---7---3--|

Eb|---------------------------------------------| (x2)
Ab|---------------------------------------------|
Db|------------------------9-9-9-9-9---14---12--|
Gb|-1010101010---10---10---9-9-9-9-9---14---12--|
Bb|-1010101010---10---10---7-7-7-7-7---12---10--|
Eb|-8-8-8-8-8----8----8-------------------------|


[Solo]

Eb|-------7---7-h8-7---12-10------------|------7---7-h8-7---12-10---------------------|
Ab|-----8--------------------12-10---12-|----8--------------------12-10----s12-10-----|
Db|--s9---------------------------------|-s9----------------------------12--------12--|
Gb|-------------------------------------|---------------------------------------------|
Bb|-------------------------------------|---------------------------------------------|
Eb|-------------------------------------|---------------------------------------------|

Eb|-------7---7-h8-7---12-10------------|------7---7-h8-7---12-12-12-----------|
Ab|-----8--------------------12-10---12-|----8------------------------10---10--|
Db|--s9---------------------------------|-s9-----------------------------------|
Gb|-------------------------------------|--------------------------------------|
Bb|-------------------------------------|--------------------------------------|
Eb|-------------------------------------|--------------------------------------|

Why can't we just get along...
Eb|--------------------------------------| (x2)
Ab|--------------------------------------|
Db|-----------9--------------------------|
Gb|--5--------9--10--9---------4-4-------|
Bb|--5------5-7--10--9------5--5-5-------|
Eb|--3--5-7------8---7--5-7--------5-7-5-|

You think you're so original...
Eb|--------------------------------------| (x2)
Ab|--------------------------------------|
Db|------------9---9---4-4-4-4--5-5-5-5--|
Gb|--5-5-5-5---9---9---4-4-4-4--4-4-4-4--|
Bb|--5-5-5-5---7---7---2-2-2-2--5-5-5-5--|
Eb|--3-3-3-3-----------------------------|

Don't wish you were dead...
Eb|----------------------------------------------| (x2)
Ab|----------------------------------------------|
Db|----------------------------------------------|
Gb|--10-10-10-10--12-12-12-12--5-5-5-5--9-9-9-9--|
Bb|--10-10-10-10--12-12-12-12--5-5-5-5--9-9-9-9--|
Eb|--8--8--8--8---10-10-10-10--3-3-3-3--7-7-7-7--|

that you say makes me...
Eb|-------------------------------------------|
Ab|---------------------8--7------------------|
Db|---------------------------9--7------------|
Gb|--7-7-7-7--9-9-9-9---------------9-(hold)--|
Bb|--7-7-7-7--9-9-9-9-------------------------|
Eb|--5-5-5-5--7-7-7-7-------------------------|

If this tour doesn't kill you...
Eb|------------------------| (x3)
Ab|------------------------|
Db|------------------------|
Gb|--7-7-7-7--10-10-10-10--|
Bb|--7-7-7-7--10-10-10-10--|
Eb|--5-5-5-5--8--8--8--8---|

Eb|-----| 
Ab|-----|
Db|-----|
Gb|--5--|
Bb|--5--|
Eb|--3--|



LYRICS

If this tour doesn't kill you then I will
I hate your guts and it makes me ill
Seeing your face every morning
One more month and twenty-two days
If this tour doesn't kill you, I may
Counting down the miles 'til we leave the state
I'm counting down the minutes 'til I can erase
Every memory of you

For a second, let's be honest
Nothing will clean your filthy conscience
Everything you do makes me wanna vomit
And if this tour doesn't kill you, buddy, I'm on it

(solo)

Why can't we just get along?
Why can't we just get along?
Why can't we just get along?
Why can't we just get along?

You think you're so original
(Why can't we just get along?)
I can't wait for your funeral
(Why can't we just get along?)
Don't wish you were dead, I wish you'd never been born at all
(Why can't everybody just chill?)
I'm trying not to let you get in my head, but every line, every goddamn syllable
That you say makes me wanna gouge out my eyes with a power drill
If this tour doesn't kill you
If this tour doesn't kill you
If this tour doesn't kill you, then I will



************************************

| h  Hammer-on
| b  Bend
| s  Slide

************************************
Suggest correction
Creating personal tab
Creating personal tab
You can edit any tab online and save it as your Personal.

You can edit, replace or remove any tab part or add personal notes – all changes will be seen only by you.

Personal tabs can be accessed anytime from any device, even offline.
Learn more »
comments
print report bad tab
2 comments total.
+1 reply
wzrdonkey 34 Dec 13, 2016 03:59 PM

This is great. Now I just need the rest of the lead guitar parts

+1 reply
majormusicfreek 10 Mar 27, 2017 10:34 PM

it doesn't actually need to be tuned half-step down :) just moved everything up a fret and where it says 0, just find the note on the string below. It's all in the small "box" that your playing creates.

guest
Wanna post a correction for this tab? Suggest correction