Oops, an error
Loading. Please wait.

My Life Is Over And I Couldnt Be Happier tab

by Pup
1,855 views 84 this week
no commentswrite comment
1 2 3 4 5
x 6
add to favorites
×
Save as Personal and add changes to this tab that will be seen only by you. Learn more ›
×
You can save this tab as Personal to edit and correct it or add notes. All changes will be seen only by you. Learn more »
launch autoscroll
font size
0
reset
how to read this tab
guitar tuner
edit
Autoscroll
slow
fast
+/-
esc
set tempo
stop
[Intro] 

D#|-----------------------------------------------------------------------------|
A#|-----------------------------------------------------------------------------|
F#|-----------------------------------------------------------------------------|
C#|11--11--11-14-11-9---------------------11-11-11-11-14-11-9-------------------|
G#|0---0---0--0--0--0-11--11--9-11-9-7----0--0--0--0--0--0--0-11--11--9-11-9-11-|
D#|-------------------0---0---0-0--0-0------------------------0---0---0-0--0-0--|

D#|--------------------------------------------------------------------------------------|
A#|--------------------------------------------------------------------------------------|
F#|--------------------------------------------------------------------------------------|
C#|--11-11-11-11-14-11-9------------------------9--9--9--9--9--9--9----10-10-10-10-10-10-|
G#|--0--0--0--0--0--0--0-11--11--9--11--9---7---9--9--9--9--9--9--9----10-10-10-10-10-10-|
D#|----------------------0---0---0--0---0---0---11-11-11-11-11-11-11---12-12-12-12-12-12-|   x2



[Verse]

I don't even know why you're so pissed
You said I'm such a piece of shit
That wasn't subtle at all

Guitar 1
D#|---------------------------------------------------------------------------|
A#|9-9-9-9-9-9-9-9-9-9-9-9-9-9-9-9--------------------------------------------|
F#|9-9-9-9-9-9-9-9-9-9-9-9-9-9-9-9-8-8-8-8-8-8-8-8-8-8-8-8-8-8-8-8------------|
C#|9-9-9-9-9-9-9-9-9-9-9-9-9-9-9-9-9-9-9-9-9-9-9-9-9-9-9-9-9-9-9-9------------|
G#|7-7-7-7-7-7-7-7-7-7-7-7-7-7-7-7-9-9-9-9-9-9-9-9-9-9-9-9-9-9-9-9------------|
D#|--------------------------------7-7-7-7-7-7-7-7-7-7-7-7-7-7-7-7------------|

D#|---------------------------------------------------------------------------|
A#|--------------------------------9-9-9-9-9-9-9-9----------------------------|
F#|6-6-6-6-6-6-6-6-6-6-6-6-6-6-6-6-9-9-9-9-9-9-9-9-8-8-8-8-8-8-8-8------------|
C#|7-7-7-7-7-7-7-7-7-7-7-7-7-7-7-7-9-9-9-9-9-9-9-9-9-9-9-9-9-9-9-9------------|
G#|7-7-7-7-7-7-7-7-7-7-7-7-7-7-7-7-7-7-7-7-7-7-7-7-9-9-9-9-9-9-9-9------------|
D#|5-5-5-5-5-5-5-5-5-5-5-5-5-5-5-5-----------------7-7-7-7-7-7-7-7------------|


Maybe I deserve more credit than you gave me
Say I'll never learn and its never gonna phase me
It doesn't phase me at all

Guitar 1
D#|---------------------------------------------------------------------------|
A#|9-9-9-9-9-9-9-9-9-9-9-9-9-9-9-9--------------------------------------------|
F#|9-9-9-9-9-9-9-9-9-9-9-9-9-9-9-9-8-8-8-8-8-8-8-8-8-8-8-8-8-8-8-8------------|
C#|9-9-9-9-9-9-9-9-9-9-9-9-9-9-9-9-9-9-9-9-9-9-9-9-9-9-9-9-9-9-9-9------------|
G#|7-7-7-7-7-7-7-7-7-7-7-7-7-7-7-7-9-9-9-9-9-9-9-9-9-9-9-9-9-9-9-9------------|
D#|--------------------------------7-7-7-7-7-7-7-7-7-7-7-7-7-7-7-7------------|

D#|---------------------------------------------------------------------------|
A#|--------------------------------9-9-9-9-9-9-9-9----------------------------|
F#|6-6-6-6-6-6-6-6-6-6-6-6-6-6-6-6-9-9-9-9-9-9-9-9-8-8-8-8-8-8-8-8------------|
C#|7-7-7-7-7-7-7-7-7-7-7-7-7-7-7-7-9-9-9-9-9-9-9-9-9-9-9-9-9-9-9-9------------|
G#|7-7-7-7-7-7-7-7-7-7-7-7-7-7-7-7-7-7-7-7-7-7-7-7-9-9-9-9-9-9-9-9------------|
D#|5-5-5-5-5-5-5-5-5-5-5-5-5-5-5-5-----------------7-7-7-7-7-7-7-7------------|

Guitar 2 (continuous bending on the G string)
D#|---------------------------------------------------------------------------|
A#|0-0-0-0-0-0-0-0-0-0-0-0-0-0-0-0-0-0-0-0-0-0-0-0-0-0-0-0-0-0-0-0------------|
F#|4-4-4-4-4-4-4-4-4-4-4-4-4-4-4-4-5-5-5-5-5-5-5-5-5-5-5-5-5-5-5-5------------|
C#|---------------------------------------------------------------------------|
G#|---------------------------------------------------------------------------|
D#|---------------------------------------------------------------------------|

D#|---------------------------------------------------------------------------|
A#|0-0-0-0-0-0-0-0-0-0-0-0-0-0-0-0-0-0-0-0-0-0-0-0-0--0--0--0--0--0--0--0-----|
F#|7-7-7-7-7-7-7-7-7-7-7-7-7-7-7-7-9-9-9-9-9-9-9-9-10-10-10-10-10-10-10-10----|
C#|---------------------------------------------------------------------------|
G#|---------------------------------------------------------------------------|
D#|---------------------------------------------------------------------------|


[Pre-Chorus]

If I came home right now
What would i find out?

Guitar 1
D#|---------------------------------------------------------------------------|
A#|14-------14-------9-------9------------------------------------------------|
F#|14-------13-------9-------11-----------------------------------------------|
C#|14-------14-------9-------10-----------------------------------------------|
G#|12-------11-------7-------11-----------------------------------------------|
D#|---------------------------------------------------------------------------|

Guitar 2 
D#|--------9------------------------------------------------------------------|
A#|-----10----------12-------12-------12-------------12--------9--------------|
F#|---9----------------13-------13-------13-------13-----------11-------------|
C#|11---------------------14-------14----------14--------------10-------------|
G#|-----------------------------------------11-----------------11-------------|
D#|---------------------------------------------------------------------------|


[Chorus]

Guitar  1
D#|-----------------------------------------------------------------------------|
A#|-----------------------------------------------------------------------------|
F#|-----------------------------------------------------------------------------|
C#|11--11--11-14-11-9---------------------11-11-11-11-14-11-9-------------------|
G#|0---0---0--0--0--0-11--11--9-11-9-7----0--0--0--0--0--0--0-11--11--9-11-9-11-|
D#|-------------------0---0---0-0--0-0------------------------0---0---0-0--0-0--|

D#|--------------------------------------------------------------------------------------|
A#|--------------------------------------------------------------------------------------|
F#|--------------------------------------------------------------------------------------|
C#|--11-11-11-11-14-11-9------------------------9--9--9--9--9--9--9----10-10-10-10-10-10-|
G#|--0--0--0--0--0--0--0-11--11--9--11--9---7---9--9--9--9--9--9--9----10-10-10-10-10-10-|
D#|----------------------0---0---0--0---0---0---11-11-11-11-11-11-11---12-12-12-12-12-12-|

Guitar 2
D#|-------------12-------------------------------------------12-----------------------------|
A#|14---14---14----14-12-------------------------14-14-14-14----14-12-----------------------|
F#|----------------------13---13---11-13-11-9-------------------------13---13---11-13-11-13-|
C#|-----------------------------------------------------------------------------------------|
G#|-----------------------------------------------------------------------------------------|
D#|-----------------------------------------------------------------------------------------|

D#|------------12-------------------------------------------------------------|
A#|14-14-14-14----14-12-------------------------------------------------------|
F#|---------------------13---13---11-13-11-9----11----11----11---12----12-----|
C#|-----------------------------------------------13----13---------14----14---|
G#|-------------------------------------------------14----14---------15----15-|
D#|---------------------------------------------------------------------------|



[Verse 2]

I'm at the end of my tether
You're under my skin and I'm letting it fester
Yeah, I've had enough

Guitar 1
D#|---------------------------------------------------------------------------|
A#|9~~~~----------------------------------------------------------------------|
F#|9~~~~---------------------------8-8-8-8-8-8-8-8-8-8-8-8-8-8-8-8------------|
C#|9~~~~---------------------------9-9-9-9-9-9-9-9-9-9-9-9-9-9-9-9------------|
G#|7~~~~---------------------------9-9-9-9-9-9-9-9-9-9-9-9-9-9-9-9------------|
D#|--------------------------------7-7-7-7-7-7-7-7-7-7-7-7-7-7-7-7------------|

D#|---------------------------------------------------------------------------|
A#|--------------------------------9-9-9-9-9-9-9-9----------------------------|
F#|6-6-6-6-6-6-6-6-6-6-6-6-6-6-6-6-9-9-9-9-9-9-9-9-8-8-8-8-8-8-8-8------------|
C#|7-7-7-7-7-7-7-7-7-7-7-7-7-7-7-7-9-9-9-9-9-9-9-9-9-9-9-9-9-9-9-9------------|
G#|7-7-7-7-7-7-7-7-7-7-7-7-7-7-7-7-7-7-7-7-7-7-7-7-9-9-9-9-9-9-9-9------------|
D#|5-5-5-5-5-5-5-5-5-5-5-5-5-5-5-5-----------------7-7-7-7-7-7-7-7------------|


Guitar 2
D#|---------------------------------------------------------------------------------|
A#|---------12-------------12-14-12----------------12----------------12-14-12-------|
F#|13-11-13----13----11-13----------13-11-13-11-13----13-11----11-13----------13-11-|
C#|---------------------------------------------------------------------------------|
G#|---------------------------------------------------------------------------------|
D#|---------------------------------------------------------------------------------|

D#|---------------------------------------------------------------------------|
A#|12/14----12------------------------12--------------------------------------|
F#|----------------------------------------13------11-h-13-p-11---------------|
C#|--------------14-----------------------------------------------------------|
G#|---------------------------------------------------------------------------|
D#|---------------------------------------------------------------------------|


Stumble out and I'm headed for the van
I can't drive man I can barely stand
Forget getting it up

Guitar 1
D#|---------------------------------------------------------------------------|
A#|9-9-9-9-9-9-9-9-9-9-9-9-9-9-9-9--------------------------------------------|
F#|9-9-9-9-9-9-9-9-9-9-9-9-9-9-9-9-8-8-8-8-8-8-8-8-8-8-8-8-8-8-8-8------------|
C#|9-9-9-9-9-9-9-9-9-9-9-9-9-9-9-9-9-9-9-9-9-9-9-9-9-9-9-9-9-9-9-9------------|
G#|7-7-7-7-7-7-7-7-7-7-7-7-7-7-7-7-9-9-9-9-9-9-9-9-9-9-9-9-9-9-9-9------------|
D#|--------------------------------7-7-7-7-7-7-7-7-7-7-7-7-7-7-7-7------------|

D#|---------------------------------------------------------------------------|
A#|--------------------------------9-9-9-9-9-9-9-9----------------------------|
F#|6-6-6-6-6-6-6-6-6-6-6-6-6-6-6-6-9-9-9-9-9-9-9-9-8-8-8-8-8-8-8-8------------|
C#|7-7-7-7-7-7-7-7-7-7-7-7-7-7-7-7-9-9-9-9-9-9-9-9-9-9-9-9-9-9-9-9------------|
G#|7-7-7-7-7-7-7-7-7-7-7-7-7-7-7-7-7-7-7-7-7-7-7-7-9-9-9-9-9-9-9-9------------|
D#|5-5-5-5-5-5-5-5-5-5-5-5-5-5-5-5-----------------7-7-7-7-7-7-7-7------------|


Guitar 2
D#|---------------------------------------------------------------------------------|
A#|---------12-------------12-14-12----------------12------12--------12-14-12-------|
F#|13-11-13----13----11-13----------13-11-13-11-13----13-------11-13----------13-11-|
C#|---------------------------------------------------------------------------------|
G#|---------------------------------------------------------------------------------|
D#|---------------------------------------------------------------------------------|

D#|------------------------------------------------------------------------------|
A#|12/14----12------------------------12-------------------------------------12--|
F#|----------------------------------------13------11-h-13-p-11--------11-13-----|
C#|--------------14----------------------------------------------13-14-----------|
G#|------------------------------------------------------------------------------|
D#|------------------------------------------------------------------------------|



[Bridge]

I bet you faked it all along
And I bet you never missed me at all
I'm still waiting, I'm not moving on

Guitar 1
D#|----5-------------------------------------------7-7-7-7-7-7-7-7--|
A#|----5---------------------------9-9-9-9-9-9-9-9-7-7-7-7-7-7-7-7--|
F#|x-x-6---------------------------9-9-9-9-9-9-9-9-8-8-8-8-8-8-8-8--|
C#|x-x-7---------------------------9-9-9-9-9-9-9-9-9-9-9-9-9-9-9-9--|
G#|x-x-7---------------------------7-7-7-7-7-7-7-7-9-9-9-9-9-9-9-9--|
D#|x-x-5-------------------------------------------7-7-7-7-7-7-7-7--|

D#|----5-------------------------------------------4-4-4-4-4-4-4-4--|
A#|----5---------------------------9-9-9-9-9-9-9-9-4-4-4-4-4-4-4-4--|
F#|x-x-6---------------------------9-9-9-9-9-9-9-9-5-5-5-5-5-5-5-5--|
C#|x-x-7---------------------------9-9-9-9-9-9-9-9-4-4-4-4-4-4-4-4--|
G#|x-x-7---------------------------7-7-7-7-7-7-7-7-6-6-6-6-6-6-6-6--|
D#|x-x-5-------------------------------------------4-4-4-4-4-4-4-4--|

D#|----5-----5------------5-----5-------------------7-7-7-7-7-7-7-7--|
A#|----5-----5------------5-----5---9-9-9-9-9-9-9-9-7-7-7-7-7-7-7-7--|
F#|x-x-6-----6-------x-x--6-----6---9-9-9-9-9-9-9-9-8-8-8-8-8-8-8-8--|
C#|x-x-7-----7-------x-x--7-----7---9-9-9-9-9-9-9-9-9-9-9-9-9-9-9-9--|
G#|x-x-7-----7-------x-x--7-----7---7-7-7-7-7-7-7-7-9-9-9-9-9-9-9-9--|
D#|x-x-5-----5-------x-x--5-----5-------------------7-7-7-7-7-7-7-7--|

Guitar 2
D#|-----------------------------------------------------------------------------|
A#|x-x-14------------------------12-14-12------------------------------------12-|
F#|x-x-14---------------------------------13-11------11----------------11-13----|
C#|x-x-14---------------------------------------14------13-------13-14----------|
G#|x-x-12-----------------------------------------------------------------------|
D#|-----------------------------------------------------------------------------|

D#|---------------------------------------------------------------------------|
A#|x-x-14----------------------------9-9-9-9-9-9-9-9--------------------------|
F#|x-x-14----------------------------9-9-9-9-9-9-9-9-11-11-11-11-11-11-11-11--|
C#|x-x-14----------------------------9-9-9-9-9-9-9-9-10-10-10-10-10-10-10-10--|
G#|x-x-12----------------------------7-7-7-7-7-7-7-7-11-11-11-11-11-11-11-11---
D#|---------------------------------------------------------------------------|

D#|----------------------------------------------------------------------------------|
A#|x-x-14-----14-----x-x-14-----14----12-14-12------------------------------------12-|
F#|x-x-14-----14-----x-x-14-----14-------------13-11------11----------------11-13----|
C#|x-x-14-----14-----x-x-14-----14-------------------14------13-------13-14----------|
G#|x-x-12-----12-----x-x-12-----12---------------------------------------------------|
D#|----------------------------------------------------------------------------------|


[Pre-Chorus]

If I came home right now
What would i find out?

Guitar 1
D#|---------------------------------------------------------------------------|
A#|14-------14-------9-------9------------------------------------------------|
F#|14-------13-------9-------11-----------------------------------------------|
C#|14-------14-------9-------10-----------------------------------------------|
G#|12-------11-------7-------11-----------------------------------------------|
D#|---------------------------------------------------------------------------|


[Chorus]

You won't believe me
You won't believe me
You won't believe me 
You won't believe me
You won't believe me
You won't believe me

Guitar  1
D#|-----------------------------------------------------------------------------|
A#|-----------------------------------------------------------------------------|
F#|-----------------------------------------------------------------------------|
C#|11--11--11-14-11-9---------------------11-11-11-11-14-11-9-------------------|
G#|0---0---0--0--0--0-11--11--9-11-9-7----0--0--0--0--0--0--0-11--11--9-11-9-11-|
D#|-------------------0---0---0-0--0-0------------------------0---0---0-0--0-0--|

D#|--------------------------------------------------------------------------------------|
A#|--------------------------------------------------------------------------------------|
F#|--------------------------------------------------------------------------------------|
C#|--11-11-11-11-14-11-9------------------------9--9--9--9--9--9--9----10-10-10-10-10-10-|
G#|--0--0--0--0--0--0--0-11--11--9--11--9---7---9--9--9--9--9--9--9----10-10-10-10-10-10-|      x2
D#|----------------------0---0---0--0---0---0---11-11-11-11-11-11-11---12-12-12-12-12-12-|

Guitar 2
D#|-------------12-------------------------------------------12-----------------------------|
A#|14---14---14----14-12-------------------------14-14-14-14----14-12-----------------------|
F#|----------------------13---13---11-13-11-9-------------------------13---13---11-13-11-13-|
C#|-----------------------------------------------------------------------------------------|
G#|-----------------------------------------------------------------------------------------|
D#|-----------------------------------------------------------------------------------------|

D#|------------12-------------------------------------------------------------|
A#|14-14-14-14----14-12-------------------------------------------------------|
F#|---------------------13---13---11-13-11-9----11----11----11---12----12-----|
C#|-----------------------------------------------13----13---------14----14---|
G#|-------------------------------------------------14----14---------15----15-|        x2
D#|---------------------------------------------------------------------------|



[Outro]


Guitar  1
D#|-----------------------------------------------------------------------------|
A#|-----------------------------------------------------------------------------|
F#|-----------------------------------------------------------------------------|
C#|11--11--11-14-11-9---------------------11-11-11-11-14-11-9-------------------|
G#|0---0---0--0--0--0-11--11--9-11-9-7----0--0--0--0--0--0--0-11--11--9-11-9-11-|
D#|-------------------0---0---0-0--0-0------------------------0---0---0-0--0-0--|

D#|--------------------------------------------------------------------------------------4-----------|
A#|--------------------------------------------------------------------------------------4-----------|
F#|--------------------------------------------------------------------------------------5-----------|
C#|--11-11-11-11-14-11-9------------------------9--9--9--9--9--9--9----9--9--9--9--9--9--6-----------|
G#|--0--0--0--0--0--0--0-11--11--9--11--9---7---9--9--9--9--9--9--9----10-10-10-10-10-10-6-----------|      
D#|----------------------0---0---0--0---0---0---11-11-11-11-11-11-11---11-11-11-11-11-11-4-----------|


Guitar 2
D#|---------------------------------------------------------------------------|
A#|---------------------------------------------------------------------------|
F#|---------------------------------------------------------------------------|
C#|---------------------------------------------------------------------------|
G#|---------------------------------------------------------------------------|
D#|---------------------------------------------------------------------------|

D#|---------------------------------------------------------------------------|
A#|---------------------------------------------------------------------------|
F#|---------------------------------------------------------------------------|
C#|---------------------------------------------------------------------------|
G#|---------------------------------------------------------------------------|
D#|---------------------------------------------------------------------------|



************************************

            
            
Suggest correction
Creating personal tab
Creating personal tab
You can edit any tab online and save it as your Personal.

You can edit, replace or remove any tab part or add personal notes – all changes will be seen only by you.

Personal tabs can be accessed anytime from any device, even offline.
Learn more »
comments
print report bad tab
guest
You may want to rate the tab now too:
select rating
Wanna post a correction for this tab? Suggest correction