Oops, an error
Loading. Please wait.

Old Wounds tab

by Pup
1,600 views 24 this week
no commentswrite comment
1 2 3 4 5
x 3
add to favorites
×
Save as Personal and add changes to this tab that will be seen only by you. Learn more ›
×
You can save this tab as Personal to edit and correct it or add notes. All changes will be seen only by you. Learn more »
launch autoscroll
font size
0
reset
how to read this tab
guitar tuner
edit
Autoscroll
slow
fast
+/-
esc
set tempo
stop
PUP - Old Wounds

Tuning: **E flat** 
Tempo: 190 BPM

Exact rhythms aren't tabbed out, but can figure out by ear

Guitar 1 - Lead
Guitar 2 - Rhythm


[Intro]

Guitar 1

eb|------------------|
Bb|-11\7---8---------|
Gb|------------8-----|
Db|------------------|
Ab|------------------|
Eb|------------------|

Guitar 2 (matching rhythm of Guitar 1)
eb|------------------|
Bb|------------------|
Gb|------------------|
Db|-9----------8-----|
Ab|-7--4---5---6-----|
Eb|----2---3---------|


[Verse 1]

Guitar 1 (feedback for 6 bars, pick scrape last two bars)

eb|-----------------------------------------|-----------------------------------------|
Bb|-----------------------------------------|-----------------------------------------|
Gb|-----------------------------------------|-----------------------------------------|
Db|-----------------------------------------|-----------------------------------------|
Ab|-----------------------------------------|------------------------X\\\-------------|
Eb|-----------------------------------------|------------------------X\\\-------------|

Guitar 2 

eb|-----------------------------------------|------------------------------------------|
Bb|-----------------------------------------|------------------------------------------|
Gb|-----------------------------------------|------------------------------------------|
Db|--9----12---------5----------------------|---9----12---------5----------------------|    
Ab|--7----10----5----3----2----5----2----5--|---7----10----5----3----2----5----2----5--|
Eb|-------------3---------0----3----0----3--|--------------3---------0----3----0----3--|


Guitar 1 (holds high E5)
 
eb|-----------------------------------------|------------------------------------------|
Bb|-----------------------------------------|------------------------------------------|
Gb|-----------------------------------------|------------------------------------------|
Db|--9---------------5----------------------|---9---------------5----------------------|    
Ab|--7----------5----3----2----5----2----5--|---7----------5----3----2----5----2----7--|
Eb|-------------3---------0----3----0----3--|--------------3---------0----3----0----5--|

Guitar 2 

eb|-----------------------------------------|------------------------------------------|
Bb|-----------------------------------------|------------------------------------------|
Gb|-----------------------------------------|------------------------------------------|
Db|--9----12---------5----------------------|---9----12---------5----------------------|    
Ab|--7----10----5----3----2----5----2----5--|---7----10----5----3----2----5----2----7--|
Eb|-------------3---------0----3----0----3--|--------------3---------0----3----0----5--|


[Chorus 1]

Guitar 1

eb|----------------------------|--------------------------------------------|
Bb|----------------------------|--------------------------------------------|
Gb|--6---6-----6---6-----6-6-6-|--8---9-----8---9-----8-999---9\------------|
Db|--5---5-----5---5-----5-5-5-|--7---8-----7---8-----7-888---8\------------|
Ab|----------------------------|--------------------------------------------|
Eb|----------------------------|--------------------------------------------|

Guitar 2

eb|----------------------------|--------------------------------------------|
Bb|----------------------------|--------------------------------------------|
Gb|----------------------------|--------------------------------------------|
Db|--5-x-5-x-x-5-x-5-x-x-5-5-5-|--7-x-8-x-x-7-x-8-x-x-7-888-----------------|
Ab|--4-x-4-x-x-4-x-4-x-x-4-4-4-|--6-x-7-x-x-6-x-7-x-x-6-777---2---5--2---5--|
Eb|--3-x-3-x-x-3-x-3-x-x-3-3-3-|--5-x-6-x-x-5-x-6-x-x-5-666---0---3--0---3--|


Guitar 1
                                              (4/4 + 7/8)   12/8
eb|--------------|----------------------------|--------------|--------------|-----------------------|
Bb|--------------|-----------------------11\--|--------------|--------------|--11--7--8-------------|
Gb|--5-----6-----|-----------8---12--11-------|--5-----6-----|--------------|------------8----------|
Db|--x-----x-----|-----5h7p5------------------|--x-----x-----|--------------|---------------5h7p5---|
Ab|--3-----4-----|--7-------------------------|--3-----4-----|--2--2--2--2--|---------------------7\|
Eb|--------------|----------------------------|--------------|--0--0--0--0--|-----------------------|

Guitar 2 (low E5 at end is first note of next riff [pickup note])

eb|--------------|----------------------------|--------------|--------------|-----------------------|
Bb|--------------|----------------------------|--------------|--------------|-----------------------|
Gb|--------------|----------------------------|--------------|--------------|-----------------------|
Db|--5-----------|----------------------------|--5-----------|--------------|-----------8-----------|
Ab|--3-----7-----|--2--------5---2-------5----|--3-----7-----|--2--2--2--2--|--2--4--5--6--------2--|
Eb|--------5-----|--0--------3---0-------3----|--------5-----|--0--0--0--0--|--0--2--3-----3h5p3-0--|


[Verse 2]

Guitar 1

eb|--------------------|--------------------|--------------------|--------------------|
Bb|--------------------|--------------------|--------------------|--------------------|
Gb|--------------------|--------------------|--------------------|--------------------|
Db|------rest----------|--9----9----9----9--|--------rest--------|--------------------|    
Ab|--------------------|--7----7----7----7--|--------------------|--X\\\--------------|
Eb|--------------------|--0----0----0----0--|--------------------|--X\\\--------------|

Guitar 2

eb|--------------------|--------------------|--------------------|--------------------|
Bb|--------------------|--------------------|--------------------|--------------------|
Gb|--------------------|--------------------|--------------------|--------------------|
Db|--------------------|--------------------|--------------------|--------------------|    
Ab|--2----5----2----5--|--2----5----2----5--|--2----5----2----5--|--2----5------------|
Eb|--0----3----0----3--|--0----3----0----3--|--0----3----0----3--|--0----3----6*~-----|


Guitar 1 (holds high E5)
 
eb|-----------------------------------------|------------------------------------------|
Bb|-----------------------------------------|------------------------------------------|
Gb|-----------------------------------------|------------------------------------------|
Db|--9---------------5----------------------|---9---------------5----------------------|    
Ab|--7----------5----3----2----5----2----5--|---7----------5----3----2----5----2----7--|
Eb|-------------3---------0----3----0----3--|--------------3---------0----3----0----5--|

Guitar 2 

eb|-----------------------------------------|------------------------------------------|
Bb|-----------------------------------------|------------------------------------------|
Gb|-----------------------------------------|------------------------------------------|
Db|--9----12---------5----------------------|---9----12---------5----------------------|    
Ab|--7----10----5----3----2----5----2----5--|---7----10----5----3----2----5----2----7--|
Eb|-------------3---------0----3----0----3--|--------------3---------0----3----0----5--|


[Chorus 2]

Guitar 1

eb|----------------------------|--------------------------------------------|
Bb|----------------------------|--------------------------------------------|
Gb|--6---6-----6---6-----6-6-6-|--8---9-----8---9-----8-999---9\------------|
Db|--5---5-----5---5-----5-5-5-|--7---8-----7---8-----7-888---8\------------|
Ab|----------------------------|--------------------------------------------|
Eb|----------------------------|--------------------------------------------|

Guitar 2 (similar rhythm to Guitar 1)

eb|----------------------------|--------------------------------------------|
Bb|----------------------------|--------------------------------------------|
Gb|----------------------------|--------------------------------------------|
Db|--5-x-5-x-x-5-x-5-x-x-5-5-5-|--7-x-8-x-x-7-x-8-x-x-7-888-----------------|
Ab|--4-x-4-x-x-4-x-4-x-x-4-4-4-|--6-x-7-x-x-6-x-7-x-x-6-777---2---5--2---5--|
Eb|--3-x-3-x-x-3-x-3-x-x-3-3-3-|--5-x-6-x-x-5-x-6-x-x-5-666---0---3--0---3--|


Guitar 1
                                                
eb|--------------|----------------------------|--------------|------------------------------------------|
Bb|--------------|-----------------------11\--|--------------|-----------------------11--7--8-----------|
Gb|--5-----6-----|-----------8---12--11-------|--5-----6-----|-----------8---12--11------------8--------|
Db|--x-----x-----|-----5h7p5------------------|--x-----x-----|-----5h7p5--------------------------5h7p5-|
Ab|--3-----4-----|--7-------------------------|--3-----4-----|--7---------------------------------------|
Eb|--------------|----------------------------|--------------|------------------------------------------|

Guitar 2 

eb|--------------|----------------------------|--------------|------------------------------------------|
Bb|--------------|----------------------------|--------------|------------------------------------------|
Gb|--------------|----------------------------|--------------|------------------------------------------|
Db|--5-----------|----------------------------|--5-----------|--5---------------------------------------|
Ab|--3-----7-----|--2--------5---2-------5----|--3-----7-----|--3-----------------7---------------------|
Eb|--------5-----|--0--------3---0-------3----|--------5-----|--------------------5---------------------|


[Bridge]

Guitar 1 (eighth notes)

eb|--11-11-11--------------|------------------|
Bb|--11-11-11--------------|------------------|
Gb|--9--9--9--etc.---------|--keep strumming--|
Db|------------------------|------------------| X2
Ab|------------------------|------------------|
Eb|------------------------|------------------|

Guitar 2

eb|------------------------|------------------|
Bb|------------------------|------------------|
Gb|------------------------|------------------|
Db|------------------------|---one bar rest---| X2
Ab|--2--2--2--2---------2--|------------------|
Eb|--0--0--0--0--3h5p3--0--|------------------|


Guitar 1
                            (2 bars eighth notes)
eb|-----------------------|--11-11-11---------|
Bb|--11--7--8-----8h10p8--|--11-11-11---------|
Gb|------------8----------|--9--9--9--etc.----|
Db|-----------------------|-------------------| X2
Ab|-----------------------|-------------------|
Eb|-----------------------|-------------------|

Guitar 2 (Same rhythm as Guitar 1)

eb|-----------------------|-------------------|
Bb|-----------------------|-------------------|
Gb|-----------------------|-------------------|
Db|-----------8-----------|-------------------| X2
Ab|--2--4--5--6-----------|--2-2-2-2----------|
Eb|--0--2--3------3h5p3---|--0-0-0-0-etc.-----|


Guitar 1 (2:3 feel for first 3 bars)
                                                                            Bend
eb|---------------|----------------|--------------|-----------------------|---5b---------------|
Bb|--11--7--8-----|-----10--12--9--|-----5--6-----|--11b12----------------|---7b---------------|
Gb|------------8--|--6-------------|--5--------7--|-------------rest------|--------------------|
Db|---------------|----------------|--------------|-----------------------|--------------------|
Ab|---------------|----------------|--------------|-----------------------|--------------------|
Eb|---------------|----------------|--------------|-----------------------|--------------------|

Guitar 2 (first three bars follow same rhythm as Guitar 1)

eb|---------------|----------------|--------------|-----------------------|--------------------|
Bb|---------------|----------------|--------------|-----------------------|--------------------|
Gb|---------------|----------------|--------------|-----------------------|---8b---------------|
Db|--9--9--9--9---|----------------|--5--5--7--8--|--9----12---------5----|---x----------------|
Ab|--7--7--7--7---|--4---4---4---4-|--3--3--5--6--|--7----10----5----3----|---6b---------------|
Eb|---------------|--2---2---2---2-|--------------|-------------3---------|--------------------|


[Outro]

Guitar 1

eb|------------------|--------------------------------------------|------------------|------------------|
Bb|------------------|-----------------------11----7--8-----------|------------------|--11-11-11-11-----|
Gb|--5-------5-------|-----------8---12--11--------------8--------|--5-------5-------|--9--9--9--9------|
Db|--5-------5-------|-----5h7p5----------------------------5h7p5-|--5-------5-------|------------------|
Ab|--3-------0-------|--7-----------------------------------------|--3-------0-------|------------------|
Eb|------------------|--------------------------------------------|------------------|------------------|

Guitar 2

eb|------------------|--------------------------------------------|------------------|------------------|
Bb|------------------|--------------------------------------------|------------------|------------------|
Gb|--5---------------|--------------------------------------------|--5---------------|------------------|
Db|--5-------7-------|--2------------------5----------------------|--5-------7-------|------------------|
Ab|--3-------7-------|--2------------------5----------------------|--3-------7-------|--2--2--2--2------|
Eb|----------5-------|--0------------------3----------------------|----------5-------|--0--0--0--0------|


End holding the final chord

Tabbed by: Pestilent Decay


************************************


| /  slide up
| \  slide down
| h  hammer-on
| p  pull-off
| ~  vibrato
| b  bend
| x  Mute note
| x\ pick slide

************************************

            
            
Suggest correction
Creating personal tab
Creating personal tab
You can edit any tab online and save it as your Personal.

You can edit, replace or remove any tab part or add personal notes – all changes will be seen only by you.

Personal tabs can be accessed anytime from any device, even offline.
Learn more »
Give kudos to tab author, rate the tab!
1 2 3 4 5
comments
print report bad tab
guest
You may want to rate the tab now too:
select rating
Wanna post a correction for this tab? Suggest correction