Oops, an error
Loading. Please wait.

Sleep In The Heat bass

by Pup
889 views 27 this week
no commentswrite comment
1 2 3 4 5
x 3
add to favorites
×
Save as Personal and add changes to this tab that will be seen only by you. Learn more ›
×
You can save this tab as Personal to edit and correct it or add notes. All changes will be seen only by you. Learn more »
launch autoscroll
font size
0
reset
guitar tuner
edit
Autoscroll
slow
fast
+/-
esc
set tempo
stop
Author
Difficulty
About this tab version
I learned this by ear and by watching videos so I consider it fairly accurate. Was this info helpful? Yes No
Standard tuning. The timing on it is sorta rough 
but I figure you should be able to figure it out from the song.  Enjoy!

[Intro]
G|---------------------------------------------------------------------------|
D|---------------------------------------------------------------------------|
A|---------------------------------------------------------------------------|
E|0-0------------------------------------------------------------------------|

G|---------------------------------------------------------------------------|
D|---------------------------------------------------------------------------|
A|---------------------------------------------------------------------------|
E|0-0------------------------------------------------------------------------|


G|-----------------------2-2-------------------------------------------------|
D|--------------6-4-4-------------------2-2----------------------------------|
A|----0-0-0-2-2----7---------4-4--2-2----------------------------------------|
E|0-0------------------------------------------------------------------------|

G|-----------------------2-2-------------------------------------------------|
D|--------------6-4-4-------------------2-2----------------------------------|
A|----0-0-0-2-2----7---------4-4--2-2----------------------------------------|
E|0-0------------------------------------------------------------------------|

["And I've said so many goodbyes..."]

G|---------------------------------------------------------------------------|
D|---------------------------------------------------------------------------|
A|------------0-0-0-0-0-0-2-2-2-------4-4-4-2-2-2----------------------------|
E|0-0-0-0-0-0-------------------4-4-4----------------------------------------|

G|---------------------------------------------------------------------------|
D|---------------------------------------------------------------------------|
A|------------0-0-0-0-0-0-2-2-2-2-2-2----------------------------------------|
E|0-0-0-0-0-0-------------------------0-0-0-0-0-0----------------------------|

[Chorus - "My Apartment.."] 
G|2-2-2-2-2-2----------------------------------------------------------------|
D|------------2-2-2-2-2-2----------------------------------------------------|
A|------------------------2-2-2-2-2-2-4-4-4-4-4-4----------------------------|
E|---------------------------------------------------------------------------|

G|2-2-2-2-2-2----------------------------------------------------------------|
D|------------2-2-2-2-2-2----------------------------------------------------|
A|------------------------2-2-2-2-2-2-2-2-2-2-2-2----------------------------|
E|---------------------------------------------------------------------------|

[Pre-Verse]
G|-----------------------2-2-------------------------------------------------|
D|--------------6-4-4-------------------2-2----------------------------------|
A|----0-0-0-2-2----7---------4-4--2-2----------------------------------------|
E|0-0------------------------------------------------------------------------|


G|-----------------------2-2-------------------------------------------------|
D|--------------6-4-4-------------------2-2----------------------------------|
A|----0-0-0-2-2----7---------4-4--2-2----------------------------------------|
E|0-0------------------------------------------------------------------------|


["Fallin' Apart"]
G|---------------------------------------------------------------------------|
D|---------------------------------------------------------------------------|
A|---------------------------------------------------------------------------|
E|0-0-0-0--------------------------------------------------------------------|

G|---------------------------------------------------------------------------|
D|---------------------------------------------------------------------------|
A|---------------------------------------------------------------------------|
E|0-0-0-0--------------------------------------------------------------------|

["It's not somethin'..."]
G|---------------------------------------------------------------------------|
D|---------------------------------------------------------------------------|
A|------------0-0-0-0-0-0-2-2-2-------4-4-4-2-2-2----------------------------|
E|0-0-0-0-0-0-------------------4-4-4----------------------------------------|

G|---------------------------------------------------------------------------|
D|---------------------------------------------------------------------------|
A|------------0-0-0-0-0-0-2-2-2-2-2-2----------------------------------------|
E|0-0-0-0-0-0-------------------------0-0-0-0-0-0----------------------------|

[Chorus - "My Apartment.."] 
G|2-2-2-2-2-2----------------------------------------------------------------|
D|------------2-2-2-2-2-2----------------------------------------------------|
A|------------------------2-2-2-2-2-2-4-4-4-4-4-4----------------------------|
E|---------------------------------------------------------------------------|

G|2-2-2-2-2-2----------------------------------------------------------------|
D|------------2-2-2-2-2-2----------------------------------------------------|
A|------------------------2-2-2-2-2-2-2-2-2-2-2-2----------------------------|
E|---------------------------------------------------------------------------|

G|---------------------------------------------------------------------------|
D|---------------------------------------------------------------------------|
A|0-0-0-0-0-0-------------2-2-2-2-2-2-4-4-4-4-4-4----------------------------|
E|------------0-0-0-0-0-0----------------------------------------------------|

G|---------------------------------------------------------------------------|
D|---------------------------------------------------------------------------|
A|0-0-0-0-0-0-2-2-2-2-2-2----------------------------------------------------|
E|---------------------------------------------------------------------------|

[Bridge] x2
G|1-1-1-1-1-1-1-1-1-1--------------------------------------------------------|
D|--------------------4-2-------------------------1-1-1-1-1-1-1-1-1-1-1-1----|
A|------------------------4-4-4-4-4-4-4-4-4-4-4-4----------------------------|
E|---------------------------------------------------------------------------|

G|---------------------------------------------------------------------------|
D|2-2-2-2-2-2-4-4-4-4-4-4----------------------------------------------------|
A|---------------------------------------------------------------------------|
E|---------------------------------------------------------------------------|

["And nothing I say..."] x2
G|---------------------------------------------------------------------------|
D|---------------------------------------------------------------------------|
A|------------0-0-0-0-0-0-2-2-2-2-2-2-4-4-4-4-4-4-2-2-2-2-2-2----------------|
E|0-0-0-0-0-0----------------------------------------------------------------|

["You're not waking up.."]
G|---------------------------------------------------------------------------|
D|---------------------------------------------------------------------------|
A|----------------------------------------------------------------2-2-2-2-2-2|
E|---------------------------------------------------------------------------|

G|---------------------------------------------------------------------------|
D|---------------------------------------------------------------------------|
A|0-0-0-0-0-0-------------2-2-2-2-2-2-4-4-4-4-4-4----------------------------|
E|------------0-0-0-0-0-0----------------------------------------------------|

G|---------------------------------------------------------------------------|
D|---------------------------------------------------------------------------|
A|0-0-0-0-0-0-2-2-2-2-2-2----------------------------------------------------|
E|---------------------------------------------------------------------------|

            
            
Suggest correction
Creating personal tab
Creating personal tab
You can edit any tab online and save it as your Personal.

You can edit, replace or remove any tab part or add personal notes – all changes will be seen only by you.

Personal tabs can be accessed anytime from any device, even offline.
Learn more »
Give kudos to tab author, rate the tab!
1 2 3 4 5
comments
print report bad tab
guest
You may want to rate the tab now too:
select rating
Wanna post a correction for this tab? Suggest correction