Oops, an error
Loading. Please wait.

Sleep In The Heat tab

by Pup
4,036 views 114 this week
no commentswrite comment
1 2 3 4 5
x 9
add to favorites
×
Save as Personal and add changes to this tab that will be seen only by you. Learn more ›
×
You can save this tab as Personal to edit and correct it or add notes. All changes will be seen only by you. Learn more »
launch autoscroll
font size
0
reset
how to read this tab
guitar tuner
edit
Autoscroll
slow
fast
+/-
esc
set tempo
stop
PUP - Sleep in the Heat

Tuning: **E flat** 
Time signature: 12/8


Guitar 1 - Lead guitar
Guitar 2 - Rhythm guitar




[Intro pt 1]

    Guitar 1
eb|-12--12----------------------|
Bb|-13--13----------------------|
Gb|-10--10----------------------|  X2
Db|-------------rest------------|
Ab|-----------------------------|
Eb|-----------------------------|
  |                             |
  | Guitar 2                    |
eb|-----------------------------|
Bb|-----------------------------|
Gb|---------------0h2-0-0h2-0---|  X2
Db|-3---3---3-3-3-3---3-3---3---|
Ab|-3---3---3-3-3-3---3-3---3---|
Eb|-1---1-----------------------|


[Intro pt 2]

    Guitar 1-
eb|-----13---10-12-10--------12----------------|-6-6---10-10---12-12---13-13-13-13--|
Bb|-----13-------------------13---10-----------|-6-6---10-10---13-13---13-13-13-13--|
Gb|-/10--------------------12-------12--10--12-|------------------------------------|  X2
Db|--------------------/14---------------------|------------------------------------|
Ab|--------------------------------------------|------------------------------------|
Eb|--------------------------------------------|------------------------------------|
  |                                            |                                    |
  | Guitar 2 (strumming)                       |                                    |
eb|--------------------------------------------|------------------------------------|
Bb|--------------------------------------------|------------------------------------|
Gb|----------3----------5----------7-----------|-3-------7-------5------------------|  X2
Db|-3--------3----------5----------7-----------|-3-------7-------5-------3----------|
Ab|-3--------1----------3----------5-----------|-1-------5-------3-------3----------|
Eb|-1------------------------------------------|-------------------------1----------|



[Verse 1]

    Guitar 1
eb|----------------|-----------------|
Bb|----------------|-----------------|
Gb|----------------|-----------------|
Db|----rest--------|----rest---------|
Ab|----------------|-----------------|
Eb|----------------|-----------------|
  |                |                 |
  | Guitar 2(strum)|                 |      
eb|----------------|-----------------|
Bb|----------------|-----------------|
Gb|-2------3-------|-5------10-------|  
Db|-3------3-------|-5------10-------| (note: last three chords aren't power chords)
Ab|-3------5-------|-7------12-------|
Eb|-1--------------|-----------------|


    Guitar 1
eb|-13-------------|-----------------|
Bb|-13-------------|---------10------|
Gb|-10-------------|-----------12-10-|
Db|----------------|-----------------|
Ab|----------------|-----------------|
Eb|----------------|-----------------|
  |                |                 |
  | Guitar 2       |                 |
eb|----------------|-----------------|
Bb|----------------|-----------------|
Gb|-2------3-------|-5------10-------|  
Db|-3------3-------|-5------10-------|
Ab|-3------5-------|-7------12-------|
Eb|-1--------------|-----------------|


    Guitar 1 (ring each chord)
eb|----------------|-10------12---13\-|
Bb|-10-----11------|-13------13-------|
Gb|-10-----10------|-12------10-------|
Db|-10-----12------|------------------|
Ab|(12)------------|------------------|
Eb|----------------|------------------|
  |                |                  |
  | Guitar 2       |                  |
eb|----------------|------------------|
Bb|----------------|------------------|
Gb|-2------3-------|-5-------7---5----|
Db|-3------3-------|-5---7---7---5----|
Ab|-3------5-------|-7---7---5---7----|
Eb|-1--------------|-----5------------|


    Guitar 1 
eb|----------------|-10------12---13\-|
Bb|-10-----11------|-13------13-------|
Gb|-10-----10------|-12------10-------|
Db|-10-----12------|------------------|
Ab|(12)------------|------------------|
Eb|----------------|------------------|
  | Guitar 2       |                  |
eb|----------------|------------------|
Bb|----------------|------------------|
Gb|-2------3-------|-5------10--------|  
Db|-3------3-------|-5------10--------|
Ab|-3------5-------|-7------12--------|
Eb|-1--------------|------------------|



[Chorus 1]

    Guitar 1                                         
eb|-------------------------------------------------|-----------------------------------------------------|
Bb|-------------------------------------------------|-----------------------------------------------------|
Gb|-------------------------------------------------|-----------------------------------------------------|
Db|---12-10---------------------12-10---------------|-------12-10---------------------12-10---------------|
Ab|-----------12p10-12p10-12p10---------12p10-12p10-|-12p10---------12p10-12p10-12p10---------12p10-12p10-|
Eb|-------------------------------------------------|-----------------------------------------------------|
  |                                                 |                                                     |
  | Guitar 2 (strumming)                            |                                                     |
eb|-------------------------------------------------|-----------------------------------------------------|
Bb|-------------------------------------------------|-----------------------------------------------------|
Gb|-------------------------------------------------|-5--------------------------7------------------------| 
Db|-8----------------------3------------------------|-5--------------------------7------------------------|
Ab|-8----------------------3------------------------|-3--------------------------5------------------------|
Eb|-6----------------------1------------------------|-----------------------------------------------------|


    Guitar 1                                         
eb|----------------------------------------------------|-----------------------------------------------------|
Bb|----------------------------------------------------|-----------------------------------------------------|
Gb|----------------------------------------------------|-----------------------------------------------------|
Db|------12-10---------------------12-10---------------|-------12-10---------------------12-10---------------|
Ab|-12p10--------12p10-12p10-12p10---------12p10-12p10-|-12p10---------12p10-12p10-12p10---------12p10-12p10-|
Eb|----------------------------------------------------|-----------------------------------------------------|
  |                                                    |                                                     
  | Guitar 2                                           |                                                     
eb|----------------------------------------------------|---------------------------------------------------|
Bb|----------------------------------------------------|---------------------------------------------------|
Gb|----------------------------------------------------|-5-------------------------------------------------| 
Db|-8----------------------3---------------------------|-5-------------------------------------------------|
Ab|-8----------------------3---------------------------|-3-------------------------------------------------|
Eb|-6----------------------1---------------------------|---------------------------------------------------|



[Intro pt 2]

    Guitar 1
eb|-----13---10-12-10--------12----------------|-6-6---10-10---12-12---13-13-13-13--|
Bb|-----13-------------------13---10-----------|-6-6---10-10---13-13---13-13-13-13--|
Gb|-/10--------------------12-------12--10--12-|------------------------------------|  X2
Db|--------------------/14---------------------|------------------------------------|
Ab|--------------------------------------------|------------------------------------|
Eb|--------------------------------------------|------------------------------------|
  |                                            |                                    |
  | Guitar 2 (strumming)                       |                                    |
eb|--------------------------------------------|------------------------------------|
Bb|--------------------------------------------|------------------------------------|
Gb|----------3----------5----------7-----------|-3-------7-------5------------------|  X2
Db|-3--------3----------5----------7-----------|-3-------7-------5-------3----------|
Ab|-3--------1----------3----------5-----------|-1-------5-------3-------3----------|
Eb|-1------------------------------------------|-------------------------1----------|



[Verse 2]

    Guitar 1 (tremolo effect)
eb|----------------------------|-------10------------12-----|
Bb|-------10------------11-----|-----8----8--------10--10---|
Gb|-----10--10--------10--10---|---9--------9----10------10-|
Db|---10------10----12------12-|/8-------------10-----------|
Ab|-12------------12-----------|----------------------------|
Eb|----------------------------|----------------------------|
  |                            |                            |
  | Guitar 2 (strum w/muting)  |                            |
eb|----------------------------|----------------------------|
Bb|----------------------------|----------------------------|
Gb|-2--------------3-----------|-5-------------10-----------|  
Db|-3--------------3-----------|-5-------------10-----------|
Ab|-3--------------5-----------|-7-------------12-----------|
Eb|-1--------------------------|----------------------------|


    Guitar 1                                           (no tremolo)
eb|----------------------------|-------10----------12---------------|
Bb|-------10------------11-----|-----8----8------------10-----------|
Gb|-----10--10--------10--10---|---9--------9----10------12--10--12-|
Db|---10------10----12------12-|/8-------------10-------------------|
Ab|-12------------12-----------|------------------------------------|
Eb|----------------------------|------------------------------------|
  |                            |                                    |
  | Guitar 2                   |                                    |
eb|----------------------------|------------------------------------|
Bb|----------------------------|------------------------------------|
Gb|-2--------------3-----------|-5-------------10---------(rest)----|  
Db|-3--------------3-----------|-5-------------10-------------------|
Ab|-3--------------5-----------|-7-------------12-------------------|
Eb|-1--------------------------|------------------------------------|


   Guitar 1
eb|---------------|-----------------|
Bb|-10-----11-----|-15------17--18--|
Gb|-x------x------|-x-------x---x---|
Db|-7------8------|-12------14--15--|
Ab|---------------|-----------------|
Eb|---------------|-----------------|
  |               |                 |
  | Guitar 2      |                 |
eb|---------------|-----------------|
Bb|---------------|-----------------|
Gb|-2------3------|-5-------7---5---|
Db|-3------3------|-5---7---7---5---|
Ab|-3------5------|-7---7---5---7---|
Eb|-1-------------|-----5-----------|


  Guitar 1 (strum)
eb|---------------|-----------------|
Bb|-10-----11-----|-15------17--18--|
Gb|-x------x------|-x-------x---x---|
Db|-7------8------|-12------14--15--|
Ab|---------------|-----------------|
Eb|---------------|-----------------|
  |               |                 |
  | Guitar 2      |                 |
eb|---------------|-----------------|
Bb|---------------|-----------------|
Gb|-2------3------|-5-------10------|
Db|-3------3------|-5-------10------|
Ab|-3------5------|-7-------12------|
Eb|-1-------------|-----------------|




[Chorus 2]

    Guitar 1                                         
eb|-------------------------------------------------|-----------------------------------------------------|
Bb|-------------------------------------------------|-----------------------------------------------------|
Gb|-------------------------------------------------|-----------------------------------------------------|
Db|---12-10---------------------12-10---------------|-------12-10---------------------12-10---------------|
Ab|-----------12p10-12p10-12p10---------12p10-12p10-|-12p10---------12p10-12p10-12p10---------12p10-12p10-|
Eb|-------------------------------------------------|-----------------------------------------------------|
  |                                                 |                                                     |
  | Guitar 2 (strumming)                            |                                                     |
eb|-------------------------------------------------|-----------------------------------------------------|
Bb|-------------------------------------------------|-----------------------------------------------------|
Gb|-------------------------------------------------|-5--------------------------7------------------------| 
Db|-8----------------------3------------------------|-5--------------------------7------------------------|
Ab|-8----------------------3------------------------|-3--------------------------5------------------------|
Eb|-6----------------------1------------------------|-----------------------------------------------------|


    Guitar 1                                         
eb|----------------------------------------------------|-----------------------------------------------------|
Bb|----------------------------------------------------|-----------------------------------------------------|
Gb|----------------------------------------------------|-----------------------------------------------------|
Db|------12-10---------------------12-10---------------|-------12-10---------------------12-10---------------|
Ab|-12p10--------12p10-12p10-12p10---------12p10-12p10-|-12p10---------12p10-12p10-12p10---------12p10-12p10-|
Eb|----------------------------------------------------|-----------------------------------------------------|
  |                                                    |                                                     
  | Guitar 2                                           |                                                     
eb|----------------------------------------------------|--------------------------------------------------|
Bb|----------------------------------------------------|--------------------------------------------------|
Gb|----------------------------------------------------|-5------------------------------------------------| 
Db|-8----------------------3---------------------------|-5------------------------------------------------|
Ab|-8----------------------3---------------------------|-3------------------------------------------------|
Eb|-6----------------------1---------------------------|--------------------------------------------------|

    Guitar 1                                         
eb|-------------------------------------------------|-----------------------------------------------------|
Bb|-------------------------------------------------|-----------------------------------------------------|
Gb|-------------------------------------------------|-----------------------------------------------------|
Db|---12-10---------------------12-10---------------|-------12-10---------------------12-10---------------|
Ab|-----------12p10-12p10-12p10---------12p10-12p10-|-12p10---------12p10-12p10-12p10---------12p10-12p10-|
Eb|-------------------------------------------------|-----------------------------------------------------|
  |                                                 |                                                     |
  | Guitar 2                                        |                                                     |
eb|-------------------------------------------------|-----------------------------------------------------|
Bb|-------------------------------------------------|-----------------------------------------------------|
Gb|-7-----------------------------------------------|-5--------------------------7------------------------| 
Db|-8----------------------3------------------------|-5--------------------------7------------------------|
Ab|-8----------------------3------------------------|-3--------------------------5------------------------|
Eb|-6----------------------1------------------------|-----------------------------------------------------|


    Guitar 1                                         
eb|----------------------------------------------------|-------------------------------------------------|
Bb|----------------------------------------------------|-------------------------------------------------|
Gb|----------------------------------------------------|-------------------------------------------------|
Db|------12-10---------------------12-10---------------|-------12-10---------------------12-10-----------|
Ab|-12p10--------12p10-12p10-12p10---------12p10-12p10-|-12p10---------12p10-12p10-12p10--------12-10-12-|
Eb|----------------------------------------------------|-------------------------------------------------|
  |                                                    |                                                 |
  | Guitar 2                                           |                                                 |
eb|----------------------------------------------------|-------------------------------------------------|
Bb|----------------------------------------------------|-------------------------------------------------|
Gb|----------------------------------------------------|-5-----------------------------------------------| 
Db|-8--------------------------------------------------|-5-----------------------------------------------|
Ab|-8--------------------------------------------------|-3-----------------------------------------------|
Eb|-6--------------------------------------------------|-------------------------------------------------|




[Bridge]

    Guitar 1
eb|---------------|----------------|---------------|---------------|
Bb|-10------------|-11-------------|-13------------|-15-----13-----|
Gb|-10------------|-10-------------|-12------------|-14-----12-----|  X2 (strum softly)
Db|-10------------|----------------|---------------|---------------|
Ab|---------------|----------------|---------------|---------------|
Eb|---------------|----------------|---------------|---------------|
  |               |                |               |               |           
  | Guitar 2      |                |               |               |
eb|---------------|----------------|---------------|---------------|
Bb|---------------|----------------|---------------|---------------|
Gb|---------------|-3--------------|-5-------------|-7------5------|  X2 (strum softly)
Db|-3-------------|-3--------------|-5-------------|-7------5------|
Ab|-3-------------|-1--------------|-3-------------|-5------3------|
Eb|-1-------------|----------------|---------------|---------------|

    (loud)
    Guitar 1                                         
eb|----------------------------------------------|----------------------------------------------|
Bb|----------------------------------------------|----------------------------------------------|
Gb|----------------------------------------------|----------------------------------------------|
Db|---12-10------------------12-10---------------|---12-10------------------12-10---------------|
Ab|-8---------12p10-12p10------------12p10-12p10-|-8---------12p10-12p10------------12p10-12p10-|
Eb|----------------------------------------------|----------------------------------------------|
  |                                              |                                              |
  | Guitar 2 (strumming)                         |                                              |
eb|----------------------------------------------|----------------------------------------------|
Bb|----------------------------------------------|----------------------------------------------|
Gb|----------------------------------------------|-3------------------------------------------| 
Db|-3--------------------------------------------|-3------------------------------------------|
Ab|-3--------------------------------------------|-1------------------------------------------|
Eb|-1--------------------------------------------|--------------------------------------------|

    Guitar 1                                         
eb|----------------------------------------------|---------------------------------------|
Bb|----------------------------------------------|---------------------------------------|
Gb|----------------------------------------------|---------------------------------------|
Db|---12-10------------------12-10---------------|---------------------------------------|
Ab|-----------12p10-12p10------------12p10-12p10-|----10-13-12----10-13-12----10-13-12---|
Eb|-12--------------------12---------------------|-13----------13----------12------------|
  |                                              |                                       |
  | Guitar 2 (strumming)                         |                                       |
eb|----------------------------------------------|---------------------------------------|
Bb|----------------------------------------------|---------------------------------------|
Gb|-5--------------------------------------------|-7------------------5------------------| 
Db|-5--------------------------------------------|-7------------------5------------------|
Ab|-3--------------------------------------------|-5------------------3------------------|
Eb|----------------------------------------------|---------------------------------------|

    Guitar 1                                         
eb|----------------------------------------------|----------------------------------------------|
Bb|----------------------------------------------|----------------------------------------------|
Gb|----------------------------------------------|----------------------------------------------|
Db|---12-10------------------12-10---------------|---12-10------------------12-10---------------|
Ab|-8---------12p10-12p10------------12p10-12p10-|-8---------12p10-12p10------------12p10-12p10-|
Eb|----------------------------------------------|----------------------------------------------|
  |                                              |                                              |
  | Guitar 2 (strumming)                         |                                              |
eb|----------------------------------------------|----------------------------------------------|
Bb|----------------------------------------------|----------------------------------------------|
Gb|----------------------------------------------|-3--------------------------------------------| 
Db|-3--------------------------------------------|-3--------------------------------------------|
Ab|-3--------------------------------------------|-1--------------------------------------------|
Eb|-1--------------------------------------------|----------------------------------------------|

    Guitar 1                                         
eb|----------------------------------------------|---------------------------------------|
Bb|----------------------------------------------|---------------------------------------|
Gb|----------------------------------------------|---------------------------------------| 
Db|---12-10------------------12-10---------------|---------------------------------------|
Ab|-----------12p10-12p10------------12p10-12p10-|----10-13-12----10-13-12----10-13-12---|
Eb|-12--------------------12---------------------|-13----------13----------12------------|
  |                                              |                                       |
  | Guitar 2                                     |                                       |              
eb|----------------------------------------------|---------------------------------------|
Bb|----------------------------------------------|---------------------------------------|
Gb|-5--------------------------------------------|-7------------------5------------------|
Db|-5--------------------------------------------|-7------------------5------------------|
Ab|-3--------------------------------------------|-5------------------3------------------|
Eb|----------------------------------------------|---------------------------------------|

   Guitar 1
eb|------------------------------------------------|
Bb|-10-10--10---10-10--10---10-10--10---10-10-10---|
Gb|-10-10--10---10-10--10---10-10--10---10-10-10---| 
Db|-10-10--10---10-10--10---10-10--10---10-10-10---|
Ab|------------------------------------------------|
Eb|------------------------------------------------|
  |                                                |                         
  | Guitar 2                                       |
eb|------------------------------------------------|
Bb|------------------------------------------------|
Gb|------------------------------------------------|
Db|-3--3---3----3--3---3----3--3---3-----3--3--3---|
Ab|-3--3---3----3--3---3----3--3---3-----3--3--3---|
Eb|-1--1---1----1--1---1----1--1---1-----1--1--1---|

--Last chorus/Chorus 3--

    Guitar 1 (let ring)
eb|-------------------------------|-------10-------------12---13\----|
Bb|-------11------------10--------|-----8--------------10------------|
Gb|-----10------------10----------|---9--------------10--------------|
Db|---12------------10------------|-8--------------10----------------|
Ab|-13------------12--------------|----------------------------------|
Eb|-------------------------------|----------------------------------|
  |                               |                                  |
  | Guitar 2                      |                                  |
eb|-------------------------------|----------------------------------|
Bb|-------------------------------|----------------------------------|
Gb|-------------------------------|-5--------------7-----------------| (strum softly)
Db|-8-------------3---------------|-5--------------7-----------------|
Ab|-8-------------3---------------|-3--------------5-----------------|
Eb|-6-------------1---------------|----------------------------------|


    Guitar 1 (let ring)                            (loud)
eb|-------------------------------|-------10-------12-12-12-12-12-12-|
Bb|-------11------------10--------|-----8----------10-10-10-10-10-10-|
Gb|-----10------------10----------|---9------------10-10-10-10-10-10-|
Db|---12------------10------------|-8--------------10-10-10-10-10-10-|
Ab|-13------------12--------------|----------------------------------|
Eb|-------------------------------|----------------------------------|
  |                               |                                  |
  | Guitar 2                      |                 (loud)           |
eb|-------------------------------|----------------------------------|
Bb|-------------------------------|----------------------------------|
Gb|-------------------------------|-5---------------5--5--5--5--5--5-| 
Db|-8-------------3---------------|-5---------------5--5--5--5--5--5-|
Ab|-8-------------3---------------|-3---------------3--3--3--3--3--3-|
Eb|-6-------------1---------------|----------------------------------|


    Guitar 1
eb|---------------|----------------|--------------------|--------------------------------|
Bb|-11-----10-----|-15-----17--18--|-10---------13--11--|-10--11--13--11--10--11---------|
Gb|-x------x------|-x------x---x---|-x----------x---x---|-x---x---x---x---x---x----------|
Db|-8------7------|-12-----14--15--|-8----------10--8---|-7---8---10--8---7---8----------|
Ab|---------------|----------------|--------------------|--------------------------------|
Eb|---------------|----------------|--------------------|--------------------------------|
  |               |                |                    |                                |
  | Guitar 2      |                |                    |                                |
eb|---------------|----------------|--------------------|--------------------------------|
Bb|---------------|----------------|--------------------|--------------------------------|
Gb|---------------|-5------7-------|--------------------|-5------------------------------| (strumming)
Db|-8------3------|-5------7-------|-8------------------|-5------------------------------|
Ab|-8------3------|-3------5-------|-8------------------|-3------------------------------|
Eb|-6------1------|----------------|-6------------------|--------------------------------|


END

Tabbed by: Pestilent Decay


| /  slide up
| \  slide down
| h  hammer-on
| p  pull-off
| ~  vibrato
| b  bend
| x  Mute note
| x\ pick slide

            
            
Suggest correction
Creating personal tab
Creating personal tab
You can edit any tab online and save it as your Personal.

You can edit, replace or remove any tab part or add personal notes – all changes will be seen only by you.

Personal tabs can be accessed anytime from any device, even offline.
Learn more »
comments
print report bad tab
guest
You may want to rate the tab now too:
select rating
Wanna post a correction for this tab? Suggest correction