Oops, an error
Loading. Please wait.

Blow Your House Down Tab

version 1
version 1

Whole song

Interactive

212 views 6 this week
3 commentsread comments
1 2 3 4 5
please rate
add to favorites
launch autoscroll
font size
0
reset
how to read this tab
guitar tuner
Autoscroll
slow
fast
+/-
esc
set tempo
stop
Help us to improve Ultimate-Guitar.com Take our survey!
×
SONG: BLOW YOUR HOUSE DOWN
ARTIST: PUPIL
ALBUM: BEAUTIFUL MACHINE
KAPA-KAPA BY: CHARLES CASEM “KULIT” VILLANUEVA

LEGEND:
*-palm mute
h-hammer on

INTRO:
Guitar1
e|-----------------------|
B|-----------------------|
G|-5h7-7--XX----XX---XX--| 4X
D|--------XX----XX---XX--|
A|------5----55----55----|
E|-----------------------|

VERSE:
Guitar1
e|-----------------------|
B|-----------------------|
G|-5h7-7--XX----XX---XX--| 4X
D|--------XX----XX---XX--|
A|------5----55----55----|
E|-----------------------|
          Do what you want
          And I don’t care
          Just smile to shoot her mood
          And wave your hand
Guitar1
e|-----------------------|
B|-----------------------|
G|-5h7-7--XX----XX---XX--| 4X
D|--------XX----XX---XX--|
A|------5----55----55----|
E|-----------------------|

CHORUS:(guitar1,bass at guitar2 magsasabay sila)
Guitar1
e|-----------------------|
B|-----------------------|
G|-5h7-7--XX----XX---XX--| 3X
D|--------XX----XX---XX--|
A|------5----55----55----|
E|-----------------------|

bass
G|-------------------|     |-------------------------------|
D|-------------------| 2x  |-------------------------------| 1X
A|-5h6-8-5--55555555-|     |--5h6-5-8-8-8-8-8-8--666666-5--|
E|-------------------|     |-------------------------------|

Guitar2(palm mute)         (hindi palm mute ditto)
e--------------------|     |-------------------------------|
B|-------------------|     |-------------------------------|
G|----------77777777-| 2X  |--------101010101010-888888-7--| 1X
D|----------77777777-|     |--------101010101010-888888-7--|
A|----------55555555-|     |--------8-8-8-8-8-8--666666-5--|        
E|-------------------|     |-------------------------------|      
            ********
   Blahblahblahblah           Blahblahblahbalhbalhbalhbh
   Blahbalhbalhbalh           balhbalhbalhbalh balhbalh chance to blow your house down
                                (di ko lam ung lyrics eh) 

INTRO2: (bass at guitar sabay sila taz isingit ung guitar1)
bass
G|----------------------------|
D|----------------------------| 1X
A|-55555555--5h6-8-55555555---|     
E|----------------------------|     

             Guitar1
	  e|-----------------------|
 	  B|-----------------------|
	  G|-5h7-7--XX----XX---XX--| 1X
	  D|--------XX----XX---XX--|
	  A|------5----55----55----|
	  E|-----------------------|

Guitar2(pam mute)
e-----------------------------|      
B|----------------------------|    
G|-77777777--------77777777---| 1X 
D|-77777777--------77777777---|     
A|-55555555--------55555555---|     
E|----------------------------|       
   ********        ********
 
CHORUS2:(guitar1,bass at guitar2 magsasabay sila)
Guitar1
e|-----------------------|    |8-8------|
B|-----------------------|    |-8-7-8-5-|
G|-5h7-7--XX----XX---XX--| 3X |---------| 1X
D|--------XX----XX---XX--|    |---------|
A|------5----55----55----|    |---------|
E|-----------------------|    |---------|

bass
G|-------------------|     |-------------------------------|
D|-------------------| 2x  |-------------------------------| 1X
A|-5h6-8-5--55555555-|     |--5h6-5-8-8-8-8-8-8--666666-5--|
E|-------------------|     |-------------------------------|

Guitar2(palm mute)         (hindi palm mute ditto)
e--------------------|     |-------------------------------|
B|-------------------|     |-------------------------------|
G|----------77777777-| 2X  |--------101010101010-888888-7--| 1X
D|----------77777777-|     |--------101010101010-888888-7--|
A|----------55555555-|     |--------8-8-8-8-8-8--666666-5--|        
E|-------------------|     |-------------------------------|      
            ********
   Blahblahblahblah           Blahblahblahbalhbalhbalhbh
   Blahbalhbalhbalh           balhbalhbalhbalh balhbalh chance to blow your house down
                                (di ko lam ung lyrics eh) 


eto pa lng alam ko..pki tuloy na lng kng alam nyo...
pki rate..
email: kulit_dizzy@yahoo.com.ph
from: lorma colleges sfc..




Suggest correction
Give kudos to tab author, rate the tab!
1 2 3 4 5
comments
print report bad tab
3 comments total.
0 reply
brent_nadurata 134 wrote on April 20 2006, 07:20 am

ung lyrics b? sa album nila meron....wakekek

0 reply
deadstring_3000 634 wrote on November 18 2007, 12:56 am

Do what you want
Cause I don't care
Just buy me a souvenir
While your there

0 reply
rikarikz 42 wrote on February 1 2008, 08:21 am

hahaha... ndi ko ngawa i2 kala ko kc chords ang gnagamit d2 ndi pla mali ako try natin ung adlib ^_^

guest
You may want to rate the tab now too:
select rating
Wanna post a correction for this tab? Suggest correction