Oops, an error
Loading. Please wait.

Dianetic bass

version 1
version 1

Whole song

Interactive

by Pupil
34 views 3 this week
no commentswrite comment
1 2 3 4 5
3 more votes to show rating
add to favorites
×
Save as Personal and add changes to this tab that will be seen only by you. Learn more ›
×
You can save this tab as Personal to edit and correct it or add notes. All changes will be seen only by you. Learn more »
launch autoscroll
font size
0
reset
guitar tuner
edit
Autoscroll
slow
fast
+/-
esc
set tempo
stop
Author
DIANETIC
PUPIL

#PUPILROCKS

Tabbed by.darwin tanchingco(tanchingco_darwin@yahoo.com)

I got this tab from other apps. Pinost ko lang sa ultimate guitar

Standard tunning . E,A,D,G

X – mute notes

INTRO
G|------------------------------|
D|------------------------------|
A|------------------------------|
E|------------------------------|

G|-----------------------------------------------------|
D|----------------------7-7-7-x-7----------------------|
A|--7---9-9-x-9---7-----------------7----9-9-x-9---7---|
E|-----------------------------------------------------|

G|-------------------------------------------------------|
D|--7-7-7-x----------------------------------------------|
A|------------7-----9-9-x-9---7----10-10-10--10--10-10---|
E|-------------------------------------------------------|

G|---------------------------|
D|---------------------------|
A|--10-7-7-7-7-10-7---10-----|
E|---------------------------|

VERSE 1

Alam mo bang nandito,nalilito di nagbibiro
G|-----------------------------------------|
D|-----------------------------------------|
A|----0--0-----0---0-----------------------|
E|--0------0------------0-2-2-0---2---2----|

G|-----------------------------------------|
D|-----------------------------------------|
A|----0--0-----0---0-----------------------|
E|--0------0------------0-2-2-0---2---2----|

G|-------------------------------------|
D|--------------------5-----5----------|
A|--3-3-3-3-3-3-3-3-----7-7---5-5-5-5--|
E|-------------------------------------|

VERSE 2

Saan ka man naroroon,pangalan mo ang ibubulong
G|-----------------------------------------|
D|-----------------------------------------|
A|----0--0-----0---0-----------------------|
E|--0------0------------0-2-2-0---2---2----|

G|-----------------------------------------|
D|-----------------------------------------|
A|----0--0-----0---0-----------------------|
E|--0------0------------0-2-2-0---2---2----|

REFRAIN
G|--------------------------------------|
D|--------------------5-5-4-------------|
A|--3-3-3-3-3-3-3-3---------7-5-7-5-5---|
E|--------------------------------------|

CHORUS 1

Tulad ng isang panaginip ako ay gagapang sa isip mo…
G|----------------------------------------------------------------|
D|----------------------------------5-5-5-5-5-5-5-5-5-5-5-5-5-5-5-|
A|----------------------------------------------------------------|
E|-3-3-3-3-3-3-3-3--3-3-3-3-3-3-3-3-------------------------------|



G|-----2-2----2--2-2-----------------------|
D|--2-------------------2--5-5---2--5-5----|
A|-----------------------------------------|
E|-----------------------------------------|

G|-----2-2----2---2-2---------0-0------0-0-0--|
D|--2----------------------2--------2---------|
A|--------------------------------------------|
E|--------------------------------------------|

Bawat halik ay tanda ng pangako na ako ay sayo at
Magiging aking ka sa puso’t kaluluwa aah…
G|----------------------------------------------------------------------|
D|-0-0-0-0-0-0-0-0--0-0-0-0-0-2-2-2--2-4-4-4-4-4-4-4-4--4-2-2-2-2-0-0-0-|
A|----------------------------------------------------------------------|
E|----------------------------------------------------------------------|

G|-------------------------------------------------------------------|
D|-------------------------------------------------------------------|
A|--3--3--3--3-3----3-3---3-3-2-0------------------------------------|
E|----------------------------------3--3--3--3-3----3-3--3-3--3-3-3--|

G|------------------------------------|
D|------------------------------------|
A|------------------------------------|
E|-0-0-0-0-0-0-0-0---0-0-0-0-0-0-0-0--|


(REPEAT VERSE 1)

VERSE 4

Kaya’t mahal wag mainip pag-ibig ko’y di nagpipilit
G|-----------------------------------------|
D|-----------------------------------------|
A|----0--0-----0---0-----------------------|
E|--0------0------------0-2-2-0---2---2----|

G|-----------------------------------------|
D|-----------------------------------------|
A|----0--0-----0---0-----------------------|
E|--0------0------------0-2-2-0---2---2----|

G|--------------------------------------|
D|--------------------5-5-4-------------|
A|--3-3-3-3-3-3-3-3---------7-5-7-5-5---| repeat this tab 4x
E|--------------------------------------|

BRIDGE
G|----------------------------------------|
D|----------------------------------------|
A|----------------------------------------|
E|--0-5-5-0---5---5----0-2-2-0---2---2----|

G|----------------------------------------|
D|----------------------------------------|
A|----------------------------------------|
E|--0-5-5-0---5---5----0-2-2-0---2---2----|

G|----------------------------------------|
D|----------------------------------------|
A|----------------------------------------|
E|--0-5-5-0---5---5----0-2-2-0---2---2----|


G|--------------------------------------|
D|--------------------------------------|
A|--------------------------------------|
E|--2-3-3-3-3-3-3-3---3-0-0-0-0-0-0-0---|

VERSE 5

Saan ka man naroroon pangalan mo ang ibinubulong…
G|--------------------------------------------------|
D|--------------4-4-4-x-------------------4-4-4-x---|
A|--0-0-0-x------------------0-0-0-x----------------|
E|--------------------------------------------------|

REFRAIN 2

Ikaw pa rin ang hinahanap ko…
G|-----------------7----7-7-6-----------|
D|-----------5-7-9------------9-7-9-7---|
A|--------------------------------------|
E|--3-3-3-3-----------------------------|

CHORUS 2

Tulad ng isang panaginip ako ay gagapang sa isip mo.
G|-------------------------------------------------------------------|
D|-5-5-5-5-5-5-5-5--5-5-5--------------------------------------------|
A|------------------------5-5-5-5-5----------------------------------|
E|-----------------------------------3-3-3-3-3-3-3-3-3-3-3-3-3-3-3-3-|

G|-----2-2----2---2-2---------0-0------0-0-0--|
D|--2----------------------2--------2---------|
A|--------------------------------------------|
E|--------------------------------------------|

G|-----2-2----2---2-2---------0-0------0-0-0--|
D|--2----------------------2--------2---------|
A|--------------------------------------------|
E|--------------------------------------------|

Bawat halik ay tanda ng pangako na ako ay sayo at
Magiging aking ka sa puso’t kaluluwa aah…
G|----------------------------------------------------------------------|
D|-0-0-0-0-0-0-0-0--0-0-0-0-0-2-2-2--2-4-4-4-4-4-4-4-4--4-2-2-2-2-0-0-0-|
A|----------------------------------------------------------------------|
E|----------------------------------------------------------------------|

G|-------------------------------------------------------------------|
D|-------------------------------------------------------------------|
A|--3--3--3--3-3----3-3---3-3-2-0------------------------------------|
E|----------------------------------3--3--3--3-3----3-3--3-3--3-3-3--|

G|------------------------------------|
D|------------------------------------|
A|------------------------------------|
E|-0-0-0-0-0-0-0-0---0-0-0-0-0-0-0-0--|

ENDING PART
G|-----------------------------------------|
D|-----------------------------------------|
A|----0--0-----0---0-----------------------| REPEAT 5X then
E|--0------0------------0-2-2-0---2---2----|
G|-----------------------------------------|
D|-----------------------------------------|
A|----0--0-----0---0-----------------------|
E|--0------0------------0-2-2-0---2-2-2-2--|

G|------------------------------------------------------|
D|------------------------------------------------------|
A|-------------------5---5----------------------5---5---|
E|--3-3-3---3----3-3-----------3-3-3---3----3-3---------|

G|------------------------------------------------------|
D|------------------------------------------------------|
A|-------------------5---5----------------------5---5---|
E|--3-3-3---3----3-3-----------3-3-3---3----3-3---------|

OUTRO

G|------------------------------------------------------|
D|------------------------------------------------------|
A|-------------------5---5----------------------5---5---|
E|--3-3-3---3----3-3-----------3-3-3---3----3-3---------|

G|-------------------------------------------------|
D|-------------------------------------------------|
A|-------------------5---5-------------------------|
E|--3-3-3---3----3-3-----------3--3--3---3-3-3-3---|

G|--------------------------------------------------------|
D|--------------------------------------------------------|
A|-------5---5---------------------5---5------------------|
E|---3-3----------3-3-3---3----3-3----------3-3-3---3-3---|

G|--------------------------------------------|
D|---------------------------5~---------------|
A|------------5-5-5-5-------------------------|
E|--3--3--3-----------------------------------|















            
            
Suggest correction
Creating personal tab
Creating personal tab
You can edit any tab online and save it as your Personal.

You can edit, replace or remove any tab part or add personal notes – all changes will be seen only by you.

Personal tabs can be accessed anytime from any device, even offline.
Learn more »
Give kudos to tab author, rate the tab!
1 2 3 4 5
comments
print report bad tab
guest
You may want to rate the tab now too:
select rating
Wanna post a correction for this tab? Suggest correction