Oops, an error
Loading. Please wait.

Dianetic Tab

version 1
version 1

Whole song

Interactive

908 views 3 this week
1 commentread comment
1 2 3 4 5
worth learning
x 2
add to favorites
launch autoscroll
font size
0
reset
how to read this tab
guitar tuner
Tab Pro tools
  • play this tab
  • loop segment
  • change instrument
  • show fretboard
  • metronome
Autoscroll
slow
fast
+/-
esc
set tempo
stop
Contributor
Tabber: Sharlie Adrian Enriquez of Malate Catholic School, IV- Magiting, yeah, lalaya
na ako, gragraduate na eh, hehe..

Dianetic by pupil

Drop D 

Intro:
-|-------------------------------------------------------------------------|
-|-------------------------------------------------------------------------|
-|-------------------------------------------------------------------------|
-|-5--2--5--7--2--5--7--2--5--3--2--5--------------------------------------|
-|-5--2--5--7--2--5--7--2--5--3--2--5--------------------------------------|
-|-5--2--5--7--2--5--7--2--5--3--2--5--------------------------------------|

Verse:
Lead lang dito
-|-------------------------------------------------------------------------|
-|--15151515--------------15151515-----------------------------------------|
-|----------16161616161616---------1616161416121212------------------------|
-|-------------------------------------------------3-----------------------|
-|-------------------------------------------------3-----------------------|
-|-------------------------------------------------3-----------------------|

2x yan, ung iba pa di ko na sinama, find out for yourselves

Chorus
-|-------------------------------------------------------------------------|
-|-------------------------------------------------------------------------|
-|------5b--------------5--7--9---12-14---3------7-------------------------|
-|--3--5---0--33--0--3--5--7--9---12-14---3--3---7-------------------------|
-|--3--5---0--33--0--3--3--5--7--10--12---1--3---5-------------------------|
-|--3--5---0--33--0--3-----------------------3-----------------------------|

Verse ulit pero may part bago ung solo: F lang un
Lead Solo:

-|-------------------------------------------------------------------------|
-|---------------------8b--10b--13b----------------------------------------|
-|-4b----9b-----4b---9b----------------------------------------------------|
-|-------------------------------------------------------------------------|
-|-------------------------------------------------------------------------|
-|-------------------------------------------------------------------------|

Rhytm:
-|-------------------------------------------------------------------------|
-|-------------------------------------------------------------------------|
-|-------------------------------------------------------------------------|
-|--0--5--0--2-------------------------------------------------------------|
-|--0--5--0--2-------------------------------------------------------------|
-|--0--5--0--2-------------------------------------------------------------|
3x yan, tapos, with wah
-|--3----------------------------------------------------------------------|
-|--6----------------------------------------------------------------------|
-|--5----------------------------------------------------------------------|
-|--3----------------------------------------------------------------------|
-|--3----------------------------------------------------------------------|
-|--3----------------------------------------------------------------------|

Tapos, break mga yan
-|-------------------------------------------------------------------------|
-|-------------------------------------------------------------------------|
-|----------7b-------------------------------------------------------------|
-|--5--2--5---2------------------------------------------------------------|
-|--5--2--5---2------------------------------------------------------------|
-|--5--2--5---2------------------------------------------------------------|

Repeat chorus

Tapos adlib 2x

bridge naman, with wah ung lead
-|-------------------------------------------------------------------------|
-|-------------------------------------------------------------------------|
-|--0--0-------------------------------------------------------------------|
-|--0--0--3----------------------------------------------------------------|
-|--------3----------------------------------------------------------------|
-|--------3----------------------------------------------------------------|

paulit ulit lang yan

Outro: ung rhytm naka palm mute, f lang bali -|-333xxx-|-
eto sa lead, pinaghirapan ko yan
-|-------------------------------------------------------------------------|
-|-------------------------------------------------------------------------|
-|--5s7s9s12s14--9--12--7--------------------------------------------------|
-|--5s7s9s12s14--9--12--7--------------------------------------------------|
-|--3s5s7s10s12--7--10--5--------------------------------------------------|
-|-------------------------------------------------------------------------|

 3x yan then
-|-------------------------------------------------------------------------|
-|-------------------------------------------------------------------------|
-|-------------------------------------------------------------------------|
-|--3----------------------------------------------------------------------|
-|--3---break--------------------------------------------------------------|
-|--3----------------------------------------------------------------------|

Salamat hehe, paki-rate

Band ko pala, Coda Seven
Archie Escasio- Vocals/Guitar
Sharlie Enriquez- Guitars
Robert Angusto- Bass
Patrick Ramirez- Drums
comments
We did not receive enough feedback on this tab! Please rate:
print report bad tab
1 2 3 4 5
1 comment total.
+1 reply
shumspy wrote on September 4 2008, 10:38 pm

tab sucks'

I want to post or [tab]
guest
You may want to rate the tab now too:
select rating
Please do not post tabs as comments. Select "correction" instead!