Oops, an error
Loading. Please wait.

Dianetic Tab

version 2
version 2

Whole song

Interactive

321 views 1 this week
1 commentread comment
1 2 3 4 5
please rate
add to favorites
launch autoscroll
font size
0
reset
how to read this tab
guitar tuner
Autoscroll
slow
fast
+/-
esc
set tempo
stop
Help us to improve Ultimate-Guitar.com Take our survey!
×
Contributor
Difficulty
intermediate
---------------------------------------------------------------------------
                              Pupil:DIANETIC
---------------------------------------------------------------------------
Tabbed by: Kevin Stevens (dickieROBERTS)


This will sound like lead+bass+drums complete set or somethin'!!!
Advice ko lang i-lagay na ang daliri ninyo kaagad sa double 4 OK...


Intro: Will sound like bass but is played on lead
(w/o distortion)THIS IS LIKE DOING F# with increasing

|----------------------------------------------------------------|
|----------------------------------------------------------------|
|----------------------------------------------------------------|
|-------4--4---4--7-7-77-------4-4--4-5-5---5-5-5---4-4-4--4-4---|
|-------4--4---4--7-7-77-------4-4--4-5-5---5-5-5---4-4-4--4-4---|
|-0-0--2/3-0---2--5-5-55-----0-2-0--2-3-3---3-3-3-0-2-2-2--2-2---|


Verse 1:
    (G)                     (F)
|----------------|--------------------|
|----------------|--------------------|
|----------------|--------------------|
|---7-7---7--77--|---4-4---4--44------|
|---7-7---7--77--|---4-4---4--44------|
|-0-5-5-0-5--55--|-0-2-2-0-2--22------|
 
  Alam mo bang...    nalilito...

  Gulong-gulo...     di-nagbibiro...

Riff:
|----------------------------|
|----------------------------|
|----------------------------|
|-666-666-666----------------|
|-666-666-666----------------|
|-444-444-444-6-5-4-3-2-1----|



(G)                     (F)
|----------------|--------------------|
|----------------|--------------------|
|----------------|--------------------|
|---7-7---7--77--|---4-4---4--44------|
|---7-7---7--77--|---4-4---4--44------|
|-0-5-5-0-5--55--|-0-2-2-0-2--22------|
                    
  Saan pa man...     naroroon...

  Pangalan mo...     ang binubulong...

(Repeat Riff)

Refrain:
e|-----------------------------------------------------------|
B|-----------------------------------------------------------|
G|-----------------------------------------------------------|
D|-8-8-8-8-8-8-8-8-8-8-8-8-8-8-8-8-8-8-8-8-8-----------------|
A|-8-8-8-8-8-8-8-8-8-8-8-8-8-8-8-8-8-8-8-8-8-----------------|
E|-6-6-6-6-6-6-6-6-6-6-6-6-6-6-5-5-5-5-5-5-5-----------------|
   
 Tulad ng isang panaginip... ako ay gagapang.... sa isip mo
Riff 2:
e|-----------------------------------------|
B|-----------------------------------------|
G|-----------------------------------------|
D|---7-7-7-77------4-4---4-4---------------|   (2x)
A|---7-7-7-75------4-4---4-4---------------|
E|-0-5-5-5-55----0-2-2-0-2-2---------------|


e|-----------------------------------------------------------|
B|-----------------------------------------------------------|
G|-----------------------------------------------------------|
D|-8-8-8-8-8-8-8-8-8-8-8-8-8-8-8-8-8-8-8-8-8-8-8-8-8-8-8-8-8-|
A|-8-8-8-8-8-8-8-8-8-8-8-8-8-8-8-8-8-8-8-8-8-8-8-8-8-8-8-8-8-|
E|-6-6-6-6-6-6-6-6-6-6-6-6-6-6-5-5-5-5-5-5-5-5-5-5-5-5-5-5-5-|
 
   Bawat halik ay tanda ng pangako... na ako ay sayo at...


(strumming)(mild strumming tapos medyo rock na sa "ahhhh....")
e|----------------------|-----------------------------|--------------------|
B|----------------------|-----------------------------|--------------------|
G|----------------------|-----------------------------|--------------------|
D|-6-6-6-6-6-6-6-6-6-6--|--4-4-4-4-4-4-4-4-4-4-4-4-4--|--5-5-5-5-5-5-5-5-5-|
A|-6-6-6-6-6-6-6-6-6-6--|--4-4-4-4-4-4-4-4-4-4-4-4-4--|--5-5-5-5-5-5-5-5-5-|
E|-4-4-4-4-4-4-4-4-4-4--|--2-2-2-2-2-2-2-2-2-2-2-2-2--|--3-3-3-3-3-3-3-3-3-|

   magiging akin ka....     sa puso't kaluluwa...-       ahhhhhhhh..(pause)



(G)                     (F)
|----------------|--------------------|
|----------------|--------------------|
|----------------|--------------------|
|---7-7---7--77--|---4-4---4--44------|   (4x or 2x basta sundan ang kanta)
|---7-7---7--77--|---4-4---4--44------|
|-0-5-5-0-5--55--|-0-2-2-0-2--22------|




Verse 2:


 (G)                     (F)
|----------------|--------------------|
|----------------|--------------------|
|----------------|--------------------|
|---7-7---7--77--|---4-4---4--44------|
|---7-7---7--77--|---4-4---4--44------|
|-0-5-5-0-5--55--|-0-2-2-0-2--22------|
  masdan mo ang..     mga mata...

  wala na ngang       hahanapin pa...


Riff:
|----------------------------|
|----------------------------|
|----------------------------|
|-666-666-666----------------|
|-666-666-666----------------|
|-444-444-444-6-5-4-3-2-1----|



(G)                     (F)
|----------------|--------------------|
|----------------|--------------------|
|----------------|--------------------|
|---7-7---7--77--|---4-4---4--44------|
|---7-7---7--77--|---4-4---4--44------|
|-0-5-5-0-5--55--|-0-2-2-0-2--22------|

    Kayat mahal...   wag ma-inip...

    Pag-ibig koy...  di-nagpipilit...

(Rock style dito)
e|------------------------------------------------|
B|------------------------------------------------|
G|------------------------------------------------|
D|-33333333333333333333333333333333333333333------|
A|-33333333333333333333333333333333333333333------|
E|-11111111111111111111111111111111111111111------|

Sabihin mo lang.....Walang anuman....

Sabihin mo lang.....Walang anuman....aaaaaaannnn

(G)                     (F)
|----------------|--------------------|
|----------------|--------------------|
|----------------|--------------------|
|---7-7---77--77-|---4-4---44--44-----|
|---7-7---77--77-|---4-4---44--44-----|
|-0-5-5-0-55--55-|-0-2-2-0-22--22-----|

  du tu tu tu tu..    du tu tu tu tu..

(G)                     (F)
|----------------|--------------------|
|----------------|--------------------|
|----------------|--------------------|
|---7-7---7--77--|---4-4---4--44------|
|---7-7---7--77--|---4-4---4--44------|
|-0-5-5-0-5--55--|-0-2-2-0-2--22------|
                    
  Saan pa man...     naroroon...

  Pangalan mo...     ang binubulong...


Refrain:
e|-----------------------------------------------------------|
B|-----------------------------------------------------------|
G|-----------------------------------------------------------|
D|-8-8-8-8-8-8-8-8-8-8-8-8-8-8-8-8-8-8-8-8-8-----------------|
A|-8-8-8-8-8-8-8-8-8-8-8-8-8-8-8-8-8-8-8-8-8-----------------|
E|-6-6-6-6-6-6-6-6-6-6-6-6-6-6-5-5-5-5-5-5-5-----------------|
   
 Tulad ng isang panaginip... ako ay gagapang.... sa isip mo

(Repeat Riff 2)

e|-----------------------------------------------------------|
B|-----------------------------------------------------------|
G|-----------------------------------------------------------|
D|-8-8-8-8-8-8-8-8-8-8-8-8-8-8-8-8-8-8-8-8-8-8-8-8-8-8-8-8-8-|
A|-8-8-8-8-8-8-8-8-8-8-8-8-8-8-8-8-8-8-8-8-8-8-8-8-8-8-8-8-8-|
E|-6-6-6-6-6-6-6-6-6-6-6-6-6-6-5-5-5-5-5-5-5-5-5-5-5-5-5-5-5-|
 
   Bawat halik ay tanda ng pangako... na ako ay sayo at..


e|----------------------|-----------------------------|--------------------|
B|----------------------|-----------------------------|--------------------|
G|----------------------|-----------------------------|--------------------|
D|-6-6-6-6-6-6-6-6-6-6--|--4-4-4-4-4-4-4-4-4-4-4-4-4--|--5-5-5-5-5-5-5-5-5-|
A|-6-6-6-6-6-6-6-6-6-6--|--4-4-4-4-4-4-4-4-4-4-4-4-4--|--5-5-5-5-5-5-5-5-5-|
E|-4-4-4-4-4-4-4-4-4-4--|--2-2-2-2-2-2-2-2-2-2-2-2-2--|--3-3-3-3-3-3-3-3-3-|

   magiging akin ka....     sa puso't kaluluwa...-       ahhhhhhhh..(pause)


(G)                     (F)
|----------------|--------------------|
|----------------|--------------------|
|----------------|--------------------|
|---7-7---7--77--|---4-4---4--44------| (6x)
|---7-7---7--77--|---4-4---4--44------|
|-0-5-5-0-5--55--|-0-2-2-0-2--22------|

  Sabihin mo lang.....................
  Sabihin mo lang.....................

(Rock slow strumming dito ha...)
e|------------------------------------------------|
B|------------------------------------------------|
G|------------------------------------------------|
D|-33333333333333333333333333333333333333333------|
A|-33333333333333333333333333333333333333333------|
E|-11111111111111111111111111111111111111111------|

   Walang pakialam sa araw at sa buwan...
 
   Bastat alam ko lang na akin ka........





Yon lang po sige...
Hindi nyo po ito magagawa kung wala kayong timing...
Galingan lang po sa timing...TTTTTTTTTTTNNNNNNNNNNNNNNNXXXXXXXXXXX

CONTINUE THE ULTIMATE GUITAR TRADITIONS!!!!!
ROCK ON!!!







comments
We did not receive enough feedback on this tab! Please rate:
print report bad tab
1 2 3 4 5
1 comment total.
0 reply
dickieROBERTS 154 wrote on October 21 2006, 07:27 am

this is nice!!!

I want to post or [tab]
guest
You may want to rate the tab now too:
select rating
Please do not post tabs as comments. Select "correction" instead!