Oops, an error
Loading. Please wait.

Dianetic Tab

version 3
version 3

Whole song

Interactive

765 views 1 this week
no commentswrite comment
1 2 3 4 5
2 more votes to show rating
add to favorites
launch autoscroll
font size
0
reset
how to read this tab
guitar tuner
Autoscroll
slow
fast
+/-
esc
set tempo
stop
Help us to improve Ultimate-Guitar.com Take our survey!
×
Difficulty
novice
Title: Dianetic
Album: Beautiful Machines
Tunning: Standard 
Transcribed by: Edgie Ordoño Guray
Friendster account: edgie@live.com.ph  
School: Arellano University – Pasig City
Date Created: Saturday, July 26, 2008, 08:35 P.M.

   *Ito po ang unang tabs na ginawa ko sana magustuhan n’yo
    Para ‘to sa lahat ng taga arellano rock on!!!
    Isa ‘to sa mga favorite kong song ng pupil kaya ito yung napili kong gawin

    	

VERSE I

    G	  		F
    Alam mo bang      nalilito
e||---------------|----------------|
B||---------------|----------------|    
G||---------------|----------------|    
D||----5-5---5-5--|----3-3----3-3--|    
A||----5-5---5-5--|----3-3----3-3--|    
E||--0-3-3—0-3-3--|--0-1-1—-0-1-1--|
    G			F	           F
    Gulong-gulo,     ‘di nagbibiro
e||---------------|----------------|-------------------|
B||---------------|----------------|-------------------|   
G||---------------|----------------|-------------------|   
D||----5-5---5-5--|----3-3----3-3--|-3333333333333333--|    
A||----5-5---5-5--|----3-3----3-3--|-3333333333333333--|    
E||--0-3-3—0-3-3--|--0-1-1—-0-1-1--|-1111111111111111--|
    G              F 
    Saan pa man       naroroon
e||---------------|----------------|
B||---------------|----------------|    
G||---------------|----------------|    
D||----5-5---5-5--|----3-3----3-3--|    
A||----5-5---5-5--|----3-3----3-3--|    
E||--0-3-3—0-3-3--|--0-1-1—-0-1-1--|
     G	              F                F           	
    Pangalan mo ang  binubulong (ikaw pa rin ang hinahanap ko)
e||---------------|----------------|-------------------|
B||---------------|----------------|-------------------|   
G||---------------|----------------|-------------------|    
D||----5-5---5-5--|----3-3----3-3--|-3333333333333333--|    
A||----5-5---5-5--|----3-3----3-3--|-3333333333333333--|    
E||--0-3-3—0-3-3--|--0-1-1—-0-1-1--|-1111111111111111--|



Refrain:
F 
Tulad ng isang panaginip ako’y gagapang sa
e||-------------------------|
B||-------------------------|
G||-------------------------|
D||-3333333333333333333333--|    
A||-3333333333333333333333--|    
E||-1111111111111111111111--|
       G        F
      isip mo
** e||----------------------|----|
   B||----------------------|    |
   G||----------------------|    |___2X
   D||----55-55----33---33--|    |
   A||----55-55----33---33--|    |
   E||--0-33—33--0-11-0-11--|----|
    C
    Bawat halik ay tanda ng pangako...
e||-------------------------|
B||-------------------------|
G||-5555555555555555555555--|
D||-5555555555555555555555--|    
A||-3333333333333333333333--|    
E||-------------------------|
                 Bb 
    Na ako’y sayo at magiging akin ka ahh
e||-------------------------|
B||-------------------------|
G||-3333333333333333333333--|
D||-3333333333333333333333--|    
A||-1111111111111111111111--|    
E||-------------------------|
    F                     D 
    Sa puso’t kaluluwa ahh...
e||----------------|-----------------|
B||----------------|-----------------|
G||----------------|-77777777777777--|
D||-3333333333333--|-77777777777777--|  
A||-3333333333333--|-55555555555555--|    
E||-1111111111111--|-----------------|



Verse II  (do the pattern on verse I)
G	  		F
Masdan mo ang mga mata
G			F
Wala na ngang hahanapin pa
G			F
Kaya’t mahal huwag mainip
G			F
Pag-ibig ko’y ‘di nagpipilit	

F
Sabihin mo lang, walang ano man
F
Sabihin mo lang, walang ano man



Instrumental: (gamitin nyo power chords)
G F



Verse III   (dito bagsak bagsak lang, power chords gamitin nyo)
G           F    
Saan pa man naroon
G               F
Pangalan mo ang binubulong (ikaw pa rin ang hinahanap ko)


Repeat Refrain:
Repeat ** for several times 


Sabihin mo lang
Sabihin mo lang

F
Walang pakialam
Sa araw at sa buwan
Basta’t alam ko lang 
Na akin ka

..End..

Paki rate po.. thanks
Suportahan natin ang Pinoy Rock!!!
Kung may mali po paki tama na lang..


Suggest correction
Give kudos to tab author, rate the tab!
1 2 3 4 5
comments
print report bad tab
guest
You may want to rate the tab now too:
select rating
Wanna post a correction for this tab? Suggest correction