Oops, an error
Loading. Please wait.

Disconnection Notice bass

version 1
version 1

Whole song

Interactive

by Pupil
3,234 views 1 this week
no commentswrite comment
1 2 3 4 5
3 more votes to show rating
add to favorites
×
Save as Personal and add changes to this tab that will be seen only by you. Learn more ›
×
You can save this tab as Personal to edit and correct it or add notes. All changes will be seen only by you. Learn more »
launch autoscroll
font size
0
reset
guitar tuner
edit
Autoscroll
slow
fast
+/-
esc
set tempo
stop
Author
Difficulty
Kulang lang nang solo part, pa-comment nalang kung medyo mali
(Kayo nalang bahala sa timing)

Intro:

E----5-5--3-5-|
A-------------|   (8x)
D-------------|
G-------------|

E----5-3-----0-5-3--------5-|
A---------------------------|
D---------------------------|
G---------------------------|

(Bago mag stanza)
E---5-3--|
A--------|
D--------|
G--------|

Stanza
E---5-3--|
A--------|   (5x)
D--------|
G--------|

(I)
E---5----0-2-3-2-0-32-|
A---------------------|
D---------------------|
G---------------------|

E---0-3-2-0-32--|
A---------------|
D---------------|
G---------------|

Repeat Stanza part and I
E---------------|
A----0-5-3-0-53-|
D---------------|
G---------------|


Chorus: Turn off the lights now.
E---5-5--3-5----5-5--3-5-0-|
A------------3-------------| (4x)
D--------------------------|
G--------------------------|

Disco--nection notice
E---5-3--0-5-3----------|
A-----------------3-3-3-|
D-----------------------|
G-----------------------|

Ulitin lang ung bago mag stanza, ung stanza part pababa.


-v3

            
            
Suggest correction
Creating personal tab
Creating personal tab
You can edit any tab online and save it as your Personal.

You can edit, replace or remove any tab part or add personal notes – all changes will be seen only by you.

Personal tabs can be accessed anytime from any device, even offline.
Learn more »
Give kudos to tab author, rate the tab!
1 2 3 4 5
comments
print report bad tab
guest
You may want to rate the tab now too:
select rating
Wanna post a correction for this tab? Suggest correction