Oops, an error
Loading. Please wait.

Disconnection Notice Tab

version 1
version 1

Whole song

Interactive

18,353 views 1 this week
4 commentsread comments
1 2 3 4 5
x 4
add to favorites
launch autoscroll
font size
0
reset
how to read this tab
guitar tuner
Autoscroll
slow
fast
+/-
esc
set tempo
stop
Help us to improve Ultimate-Guitar.com Take our survey!
×
Author
Difficulty
artist:pupil
album:wildlife
song:disconnection notice


Intro:
   e|------------------------|
   B|--------5---------------|
   G|--22-22-----22-22-------|
   D|------------------2-----| (repeat many times)
   A|------------------------|
   E|------------------------|

 then..,

   e|------------------------|
   B|------------------------|
   G|--7~--5~----5--7--5~----|
   D|--7~--5~----5--7--5~----| (this is before the verse)
   A|--5~--3~----3--5--3~----|
   E|------------------------|

Verse:
  Gtr 1
   e|------------------------------------|
   B|------------------------------------|
   G|------------------------------------|
   D|--777777--555555--777777--555555----|
   A|--777777--555555--777777--555555----|
   E|--555555--333333--555555--333333----|

Chorus:
   e|------------------------------------|
   B|------------------------------------|
   G|----------888888----------888888----|
   D|--777777--888888--777777--888888----| (repeat 4x)
   A|--777777--666666--777777--666666----|
   E|--555555----------555555------------|
      "turn off the lights now..."

   e|------------------------------------|
   B|------------------------------------|
   G|--7~--5~---5--7--5~-----------------|
   D|--7~--5~---5--7--5~-----------------|
   A|--5~--3~---3--5--3~-----------------|
   E|------------------------------------|
      "disco...nnection notice..."

repeat verse
repeat chorus
____________________________________________________________________________

   uhmm..disconnection notice tab...medyo kulang ang gtr 2 eh...di kmpleto,
kayo na bahalang magpasensya...maganda itong song na ito...I rate niyo po
ito,mag comment na din po kau...tnx
____________________________________________________________________________

   un lang...
Mabuhay Philippines!XD
Suggest correction
comments
print report bad tab
4 comments total. Showing first comments.
0 reply
kokei123 31 Dec 22, 2008 11:21 PM

e|------------------------|
B|------------------------|
G|--7~--5~------7--5~----|
D|--7~--5~---7--7--5~----|
A|--5~--3~---7--5--3~----|
E|-----------5------------|

0 reply
kokei123 31 Dec 22, 2008 11:24 PM

e|-----------------------|
B|-----------------------|
G|--7~--5~------7--5~----|
D|--7~--5~---7--7--5~----| ito ang tambago magverse at sa may
A|--5~--3~---7--5--3~----| disco...nection notice.......
E|-----------5-----------|

0 reply
kokei123 31 Dec 22, 2008 11:25 PM

*ito ang tama bago magverse at sa may disco...nection notice.......

guest
You may want to rate the tab now too:
select rating
Wanna post a correction for this tab? Suggest correction