Oops, an error
Loading. Please wait.

Disconnection Notice Tab

version 2
version 2

Whole song

Interactive

5,669 views 1 this week
7 commentsread comments
1 2 3 4 5
x 3
add to favorites
launch autoscroll
font size
0
reset
how to read this tab
guitar tuner
Autoscroll
slow
fast
+/-
esc
set tempo
stop
Help us to improve Ultimate-Guitar.com Take our survey!
×
Author
DISCO-NNECTION NOTICE by Pupil


INTRO:

e|-----------------------    -------------|
B|-----------------------    -------------|
G|---------9------------- 8x -7-5----7-5--|
D|-7-7-7-7----7-7-7-7----    -7-5--7-7-5--|
A|--------------------9--    -5-3--7-5-3--|
E|-----------------------    ------5------|

bass: A-G-A-G-A-G-A


VERSE:

e|------------------------------    --------------------------------|
B|------------------------------    --------------------------------|
G|------------------------------ 2x --------------------------------| 2x
D|-7-7-7-5-5-5-7-7-7-5-5-5-7-5--    -5-5-5-4-4-4-5-5-5-4-4-4-4-4-4--|
A|-7-7-7-5-5-5-7-7-7-5-5-5-7-5--    -5-5-5-4-4-4-5-5-5-4-4-4-4-4-4--|
E|-5-5-5-3-3-3-5-5-5-3-3-3-5-3--    -3-3-3-2-2-2-3-3-3-2-2-2-2-2-2--|

e|------------------------------    --------------------------------|
B|------------------------------    --------------------------------|
G|------------------------------ 2x --------------------------------| 2x
D|-7-7-7-5-5-5-7-7-7-5-5-5-7-5--    -5-5-5-4-4-4-5-5-5-4-4-4-4-4-4--|
A|-7-7-7-5-5-5-7-7-7-5-5-5-7-5--    -5-5-5-4-4-4-5-5-5-4-4-4-4-4-4--|
E|-5-5-5-3-3-3-5-5-5-3-3-3-5-3--    -3-3-3-2-2-2-3-3-3-2-2-2-2-2-2--|


CHORUS:

So.. turn off the lights now (4X)

e|-----------------------|
B|-----------------------|
G|---------9-------------| 4x
D|-7-7-7-7-9--7-7-7-7-2--|
A|-7-7-7-7-7--7-7-7-7-2--|
E|-5-5-5-5----5-5-5-5-0--|

Disco..nnection notice (2x)

e|-------------|
B|-------------|
G|-7-5----7-5--| 2x
D|-7-5--7-7-5--|
A|-5-3--7-5-3--|
E|------5------|


bass: A-G-A-G-A-G-A

VERSE:

e|------------------------------    --------------------------------|
B|------------------------------    --------------------------------|
G|------------------------------ 2x --------------------------------| 2x
D|-7-7-7-5-5-5-7-7-7-5-5-5-7-5--    -5-5-5-4-4-4-5-5-5-4-4-4-4-4-4--|
A|-7-7-7-5-5-5-7-7-7-5-5-5-7-5--    -5-5-5-4-4-4-5-5-5-4-4-4-4-4-4--|
E|-5-5-5-3-3-3-5-5-5-3-3-3-5-3--    -3-3-3-2-2-2-3-3-3-2-2-2-2-2-2--|

e|------------------------------    --------------------------------|
B|------------------------------    --------------------------------|
G|------------------------------ 2x --------------------------------| 2x
D|-7-7-7-5-5-5-7-7-7-5-5-5-7-5--    -5-5-5-4-4-4-5-5-5-4-4-4-4-4-4--|
A|-7-7-7-5-5-5-7-7-7-5-5-5-7-5--    -5-5-5-4-4-4-5-5-5-4-4-4-4-4-4--|
E|-5-5-5-3-3-3-5-5-5-3-3-3-5-3--    -3-3-3-2-2-2-3-3-3-2-2-2-2-2-2--|


CHORUS:

So.. turn off the lights now (4X)

e|-----------------------|
B|-----------------------|
G|---------9-------------| 4x
D|-7-7-7-7-9--7-7-7-7-2--|
A|-7-7-7-7-7--7-7-7-7-2--|
E|-5-5-5-5----5-5-5-5-0--|

Disco..nnection notice (4x)

e|-------------|
B|-------------|
G|-7-5----7-5--| 4x
D|-7-5--7-7-5--|
A|-5-3--7-5-3--|
E|------5------|


ADLIB:

e|------------------|
B|------------------|
G|-----9-9----------| 8x
D|-7-7-9-9-7-7-2-2--|
A|-7-7-7-7-7-7-2-2--|
E|-5-5-----5-5-0-0--|


CHORUS:

Disco..nnection notice (2x)

e|-5--3-5--3-5--3-5--|
B|-------------------|
G|-------------------| 2x
D|-------------------|
A|-------------------|
E|-------------------|

Disco..nnection notice (4x)

e|-----------------------|
B|-----------------------|
G|---------9-------------| 4x
D|-7-7-7-7-9--7-7-7-7-2--|
A|-7-7-7-7-7--7-7-7-7-2--|
E|-5-5-5-5----5-5-5-5-0--|

NITRAM
08-25-08
07:27 PM
Suggest correction
Give kudos to tab author, rate the tab!
1 2 3 4 5
comments
print report bad tab
7 comments total. Showing first comments.
0 reply
sandatahangques 30 Oct 27, 2008 07:36 AM

tune 1/2 step down.. c",

0 reply
SundaySt 61 Dec 19, 2008 11:21 PM

This tab is all right if you don't want to tune your guitar a half step down.

0 reply
SundaySt 61 Dec 19, 2008 11:22 PM

I didn't know pupil played a half-step down though. haha

guest
You may want to rate the tab now too:
select rating
Wanna post a correction for this tab? Suggest correction