Oops, an error
Loading. Please wait.

Disconnection Notice Tab

version 3
version 3

Intro

Whole song

Interactive

3,714 views 1 this week
3 commentsread comments
1 2 3 4 5
worth learning
x 3
add to favorites
launch autoscroll
font size
0
reset
how to read this tab
guitar tuner
Tab Pro tools
  • play this tab
  • loop segment
  • change instrument
  • show fretboard
  • metronome
Autoscroll
slow
fast
+/-
esc
set tempo
stop
Contributor
----------------------------------------------------------------------------
                             disconnection notice - pupil
----------------------------------------------------------------------------
Tabbed by: john marin
Email: ninjaniecka303@yahoo.com

Tuning: standard

(intro)  first part...
e|--------------------------------------------|   -
B|--------------------------------------------|
G|-----------------8--------------------------|   2x
D|-----7-7---7-7------7-7---7-7---------------|
A|--------------------------------7-----------|
E|--------------------------------------------|   -

(intro 2nd part) while guitar 1 plays the intro...the bass will play this
G|--------------------------------------------|  
D|--------------------------------------------|  
A|--------------------------------------------|
E|-----5-5---5-5------5-5---5-5---------------|  
                                  
G|--------------------------------------------|
D|--------------------------------------------|
A|--------------------------------------------|
E|-----5-5---5-5------5-5---5-5---------------|
                                   ^at this part..guitar 2 will play this

                                                        e|--5--|
                                                        B|--5--|
                                                        G|--5--|
                                                        D|-----|
                                                        A|-----|
                                                        E|-----|
(intro 3rd part) ..altogether..^^ (this part is for guitar 2)
e|----------5---------5-----|  -
B|----------5---------5-----|
G|----------5---------5-----|  4x
D|---(7-7)-----(7-7)--------|
A|--------------------------|
E|--------------------------|  -

(intro 4th part)
e|-----------------------------------------------|
B|-----------------------------------------------|
G|---7--5-----2---7--5---------------------------|
D|---7--5-----2---7--5---------------------------|
A|---5--3-----0---5--3---------------------------|
E|-----------------------------------------------|

(intro 5nd part) 
G|--------------------------|  
D|--------------------------|  
A|--------------------------|
E|-----5p3h5--3h5--3h5------| 


(verse)
e|-------------------------------------------------------------------------|
B|-------------------------------------------------------------------------|
G|-------------------------------------------------------------------------|
D|-------------------------------------------------------------------------|
A|-------------------------------------------------------------------------|
E|--555-333-555-333-5555-555-333-555-333-5555--333-222-333333-333-222-333--|
  " there is no escaping....                  all that you hold...."

guitar 2: (just strum the string behind the nut to get the weird sound.. ^^ )

chorus: (guitar 2: will do the 1st intro, then here is the part for the bass ang guitar 1)
e|----------------------------| -
B|----------------------------|
G|------------8---------------| 4x
D|--7-7--7-7--8--7-7--7-7--2--|
A|--7-7--7-7--6--7-7--7-7--2--|
E|--5-5--5-5-----5-5--5-5--0--| -
  " turn off the lights now...."

G|--------------------------------------------| -
D|--------------------------------------------| 4x
A|----------------6---------------------------|
E|-----5-5---5-5-----5-5---5-5--0-------------| -

e|-----------------------------------------------| -  (on the 2nd part,
B|-----------------------------------------------|    guitar 2 will strum D
G|---7--5-----2---7--5---------------------------| 2x then press the 
D|---7--5-----2---7--5---------------------------|     tremolo bar down.
A|---5--3-----0---5--3---------------------------|     then strum D again)
E|-----------------------------------------------| -
   " disco--nnection no-tice...."
(bass)
G|----------------------5-5-5-----------------| -
D|--------------------------------------------| 2x
A|---5-3------0---5--3------------------------|
E|--------------------------------------------| -

(adlib)  (guitar 2 will play notes from D then just press the tremolo bar)
e|------------------| -
B|------------------|
G|-------8----------| 8x
D|--7-7--8--7-7--2--|
A|--7-7--6--7-7--2--|
E|--5-5-----5-5--0--| -

e|----------------|    ( repeat 8h10 7 times)
B|-----10p(8h10)--|
G|----------------|
A|----------------|
E|----------------|

thats all...........


just repeat the 1st and 2nd part of intro....


God bless


for suggestions and comments just email me at ninjaniecka303@yahoo.com or txt me 
at 09159416311....

===============================================================================
comments
We did not receive enough feedback on this tab! Please rate:
print report bad tab
1 2 3 4 5
3 comments total.
0 reply
Eemrach wrote on December 11 2008, 12:47 am

woooohooooo..... galing mo tlga john!!! idol!!! roni to.... hehe.

0 reply
vendettas wrote on December 12 2009, 04:46 am

pare mali bass mo

0 reply
endzei wrote on March 23 2013, 04:17 am

parang okay naman a? tama intro.

I want to post or [tab]
guest
You may want to rate the tab now too:
select rating
Please do not post tabs as comments. Select "correction" instead!