Oops, an error
Loading. Please wait.

Dulo Ng Dila Tab

version 1
version 1

Intro

Whole song

Interactive

1,228 views 1 this week
3 commentsread comments
1 2 3 4 5
x 4
add to favorites
launch autoscroll
font size
0
reset
how to read this tab
guitar tuner
Autoscroll
slow
fast
+/-
esc
set tempo
stop
Help us to improve Ultimate-Guitar.com Take our survey!
×
Author
Dulo ng Dila
Pupil
Tabber: Sharlie Adrian Enriquez
Intro:
Guitar 1: 
-]--------------------------------[-
-]--------------------------------[-
-]--5-5-x-5-5-5-------------------[-
-]--x-x-x-x-x-x-------------------[-
-]--5-5-x-5-5-5-------------------[-
-]--------------------------------[-

Tuloy tuloy yan

Guitar 2: kasabay ng riff
-]--------------------------------[-
-]--------------------------------[-
-]-55555--------------------------[-
-]------55555---------------------[-
-]--------------------------------[-
-]--------------------------------[-

pagkatapos ng riff ng Guitar 1, 2 times ung riff na yon bago to papasok
-]--------------------------------[-
-]-5-8----------------------------[-
-]-2-5----------------------------[-
-]--------------------------------[-
-]--------------------------------[-
-]--------------------------------[-

Ung lead uli 2x ung riff, then:
-]------------------------------------------[-
-]-5-8--8-8-8-8-8/1010101010101010----------[-
-]-2-5-5-5-5-5-5------------------99999999--[-
-]------------------------------------------[-
-]------------------------------------------[-
-]------------------------------------------[-

-]------------------------------------------[-
-]--8-8-8-8-8/1010101010101010--------------[-
-]-5-5-5-5-5------------------9999999979----[-
-]------------------------------------------[-
-]------------------------------------------[-
-]------------------------------------------[-

Yan lang muna mga tol hehe..

Suportahan niyo ang Coda Seven hehe..
Band kami from Malate Catholic School 
Members:
Archie Escasio- Vox
Sharlie Enriquez(Ako)- Guitars
Robert Angusto- Bass
Pat Ramirez- Drums 
Suggest correction
comments
print report bad tab
3 comments total.
0 reply
espylacopa_kurt 10 Jun 08, 2006 07:18 AM

Galing mo tol. halos parehas tayo ng ipapasa ko... may kulang ka lang..

----------------------
----------------------
-----5----------------
-----x----------------
-----5----------------
-----x----------------
pagatapos nito ay
----------------------
----------------------
-----5----------------
-----5----------------
-----x----------------
-----x----------------

sige good luck sa gitara... syanga pala... sali ka sa yahoo groups namin... PUPILCITY@YAHOOGROUPS.COM.

0 reply
bananaman99 10 Oct 12, 2007 10:12 AM

*ehem*

rhythm:
E|------------|
B|-----6------|
G|-----5------| (Dm7 5th)
D|-----3------|
A|-----5------|
E|------------|

yuzon's: (still follow the Dm7 chord prog)
E|------------|-------------|
B|------------|-------------|
G|-----5------|------0------|
D|-----3------|------5------|
A|------------|-------------|
E|------------|-------------|

*jeeez*

0 reply
CallMeSlick 916 Dec 16, 2007 12:16 PM

Thanks for that suggestion, bro. gumagawa ako ng guitar pro version nito ^_^ malapit nang matapos.

guest
You may want to rate the tab now too:
select rating
Wanna post a correction for this tab? Suggest correction