Oops, an error
Loading. Please wait.

Dulo Ng Dila Tab

version 2
version 2

Whole song

Interactive

406 views 1 this week
no commentswrite comment
1 2 3 4 5
please rate
add to favorites
launch autoscroll
font size
0
reset
how to read this tab
guitar tuner
Autoscroll
slow
fast
+/-
esc
set tempo
stop
Help us to improve Ultimate-Guitar.com Take our survey!
×
Difficulty
advanced
This is my second tab in pupil..
Title:dulo ng dila
Band:pupil
Tabbed by:kurt dela rosa

intro1:
Guitar1:
D|----------------------------------------|
G|--5555555-------------------------------|(2X)
A|--3333333--7777777---9999999------------|
E|-----------5555555---7777777------------|

(Yan guitar1 sabay sa guitar2)

Guitar2:
e|------------------------------------------------|
b|------------------------------------------------|
D|---5555555-----------9999999---11111111111111---|(2X)
G|-----------55555555--7777777---9999999----------|
A|------------------------------------------------|
E|------------------------------------------------|

Guitar1:
D|-----------------------------------------------|
G|-----------------------------------------------|(2X)
A|--3333333---5555555---7777777---9999999--------|
E|--1111111---3333333---5555555---7777777--------|

Guitar2:
e|------------------------------------------------|
b|------------------------------------------------|
D|--12--12--12--12--12--12--12--12--12--12--12----|
G|----10--10--10--10--10--10--10--10--10--10------|
A|------------------------------------------------|
E|------------------------------------------------|

(Eto yun kasunod yan)

e|-------------------------------|
b|-------------------------------|
D|--14141414141414---9999999-----|
G|-------------------------------|
A|-------------------------------|
E|-------------------------------|

(dalawang beses yan...)

verse1:
Guitar1:
D|----------------------------------------|
G|--5555555-------------------------------|(4X)
A|--3333333--7777777---9999999------------|
E|-----------5555555---7777777------------|

Guitar2:
e|-----|--------|
b|-----|--1-----| (I-plucked nyo to)
D|-----|--------|
G|--2--|--2-----|
A|--3--|--------|(4x)
E|-----|--------|

Bass:
D|-----------------------------|
G|-----------------------------|
A|--33-3---------4-5-7-5---33--|(4X)
E|--------5-55-5---------------|

(Sabay-sabay uang tatlo..)

refrain:
Guitar1:
D|----------------------------------------|
G|--5555555-------------------------------|(4X)
A|--3333333--7777777---9999999------------|
E|-----------5555555---7777777------------|

guitar2:
e|-------------------------------|
b|-------------------------------|
D|--5555555555--7777777--9999999-|(4x)
G|--------------5555555--7777777-|
A|-------------------------------|
E|-------------------------------|

(Yan guitar1 sabay sa guitar2)
(eto un kasunod)

Guitar1:
D|----------|
G|--5-5-5-5-|
A|--3-3-3-3-|
E|----------|

Guitar2:
e|----------|
b|----------|
D|----------|
G|--2-2-2-2-|
A|--3-3-3-3-|
E|----------|

(sabay ulit..,tapos pabaksak yun strum nyan..)

intro2:
Guitar1:
D|----------------------------------------|
G|--5555555-------------------------------|(2X)
A|--3333333--7777777---9999999------------|
E|-----------5555555---7777777------------|

Guitar2:
e|------------------------------------------------|
b|------------------------------------------------|
D|---5555555-----------9999999---11111111111111---|(2X)
G|-----------55555555--7777777---9999999----------|
A|------------------------------------------------|
E|------------------------------------------------|

(then repeat the verse followed by the refrain..)

outro:
Guitar1:
e|-----|
b|-----|
D|-----|(4x)
G|--2--|
A|--3--|
E|-----|

(puro baksak lang yun strum,pero sa ikatlong baksak papasok n yun Guitar2)

Guitar2:
e|--11--9--11------|
b|------------10s--|
D|-----------------|
G|-----------------|
A|-----------------|
E|-----------------|

(tapos may papasok pang lead)

Guitar2:
e|--------------------|
b|--------------------|
D|--------------------|
G|----------9-11-10---|
A|-----9-11-----------|
E|---10---------------|


(tapos eto na yun pinaka-outro)
Guitar1:
D|-----------------------------------------------|
G|-----------------------------------------------|(4x)
A|--3333333---5555555---7777777---9999999--------|
E|--1111111---3333333---5555555---7777777--------|

guitar2:
e|-------------------------------------------|
b|-------------------------------------------|
D|---12--12--12--12--12--12--12--12--12--12--|
G|-10--10--10--10--10--10--10--10--10--10----|
A|-------------------------------------------|
E|-------------------------------------------|

e|-------------------------------|
b|-------------------------------|
D|--14141414141414---9999999-----|
G|-------------------------------|
A|-------------------------------|
E|-------------------------------|
(dalawang beses ito)

guitar2:
e|-----------------------------------------|
b|-----------------------------------------|
D|-12--12--12--12--12--12--12--12--12--12--|
G|---10--10--10--10--10--10--10--10--10----|
A|-----------------------------------------|
E|-----------------------------------------|

e|--------------------------------------|
b|--------------------------------------|
D|--14141414141414---16161616161616-----|
G|--------------------------------------|
A|--------------------------------------|
E|--------------------------------------|

e|-----------------------------------------|
b|-----------------------------------------|
D|-17--17--17--17--17--17--17--17--17--17--|
G|---15--15--15--15--15--15--15--15--15----|
A|-----------------------------------------|
E|-----------------------------------------|

e|--------------------------------------|
b|--------------------------------------|
D|--21212121212121----------------------|
G|-------------------21212121212121-----|
A|--------------------------------------|
E|--------------------------------------|

(yan yung mga lead..tuloy pa rin ang pag strum ng guitar1 4x pa rin yun 
     hanggang matapos yung lead)

(eto yun last)

Guitar1:
D|----------------|
G|--5--4----------|
A|--3--2--5-------|
E|--------3-------|

(Puro baksak lang)

e|------------|
b|------------|
D|--17-16-----|
G|--------17--|
A|------------|
E|------------|

yan guys nakatapos n naman ako ng isang kanta..
iaalay ko to sa pinakamamahal ko..
iaalay ko ri to sa mga classmate ko..
mga taga-III-BRONZE..

Ito ulkit band ko
Femitsteh:
Jaymac dela Rosa/vocals
Archie dela Rosa/rhythm
Kurt dela Rosa/lead guitars
Calvin David/bass
Clarence Malapitan/drums

pls. paki-rate itong tab ko!
Suggest correction
Give kudos to tab author, rate the tab!
1 2 3 4 5
comments
print report bad tab
guest
You may want to rate the tab now too:
select rating
Please do not post tabs as comments. Select "correction" instead!