Oops, an error
Loading. Please wait.

Dulo Ng Dila Tab

version 3
version 3

Whole song

Interactive

452 views 1 this week
no commentswrite comment
1 2 3 4 5
x 3
add to favorites
launch autoscroll
font size
0
reset
how to read this tab
guitar tuner
Autoscroll
slow
fast
+/-
esc
set tempo
stop
Help us to improve Ultimate-Guitar.com Take our survey!
×
Author
Difficulty
intermediate
ito masmaayos na version... ako rin ngkapa nung isa.. medyo hindi kasi complete so ito complete na to...

dulo ng dila by pupil
tabbed by joshua andres

intro.. guitar 1 (2 times)
e|---------|------------------------------|
b|---------|------------------------------|
g|--55-555-|555-5555----------------------|
d|--55-555-|555-5555--7777777--99999999---|
a|--33-333-|333-3333--7777777--99999999---|
E|---------|----------5555555--77777777---|
           |
guitar 2   | papasok dito sa may line...
e|---------|--------------------------------------|
b|---------|--------------------------------------|
g|---------|----------99999999--1212121212121212--|
d|---------|-55-5555--77777777--1010101010101010--|
a|---------|--------------------------------------|
E|---------|--------------------------------------|

guitar 2.. sa second time...
e|--------------------------------------------------|
b|--------------------------------------------------|
g|--55-555-5-----------999999999--1212121212121212--|
d|-----------55-555-5--777777777--1010101010101010--|
a|--------------------------------------------------|
E|--------------------------------------------------|

guitar 1... (2 times)
e|--------------------------------|
b|-----------------------------1--|
g|--1010-101010-101010-101010--2--|
d|--1010-101010-101010-101010--2--|
a|---8-8--8-8-8--8-8-8--8-8-8--0--|
E|--------------------------------|

kasabay nung bass..
bass.. (2 times)
g|---------------------------------------|
d|---------------------------------------|
a|---------------------------------------|
E|--11-111-1-33-333-3-55-555-5-77-777-7--|

and kasabay ng lead..
guitar 2.. (2 times)
e|-------------------------------------------------------------|
b|-------------------------------------------------------------|
g|--12--12--12--12--12--12--12--12---1414141414141414-99999999-|
d|----10--10--10--10--10--10--10--10---------------------------|
a|-------------------------------------------------------------|
E|-------------------------------------------------------------|

verse 1 "at meron lang naisip.."

giutar 1... (4 times) C, G, Am
e|-------------------|
b|--------1----------|
g|--5-----2----------|
d|--5--5--2-----0----|
a|--3--5--0-0-2---2--|
E|-----3-------------|

guitar 2.. pag nag Am na..
e|--12--|
b|--13--|
g|--12--|
d|------|
a|------|
E|------|

"anong kailangan.."
guitar 1.. (4 times)
e|--------------------|
b|-----------------1--|
g|--55-555-555-555-2--|
d|--55-555-555-555-2--|
a|--33-333-333-333-0--|
E|--------------------|

guitar 2.. (4 times) tapos sa part na.. "parang ganyan..." Am 4x
e|-----0---0---0---0------------|
b|---0---0---0---0---1-1-3-1-0--|
g|--5-5-5-5-5-5-5-5-2-2---------|
d|------------------------------|
a|------------------------------|
E|------------------------------|

guitar 1..
e|-------------------|--------------------|
b|-------------------|--------------------|
g|--55-555-555-5555--|--------------------|
d|--55-555-555-5555--|7777777--99999999---|
a|--33-333-333-3333--|7777777--99999999---|
E|-------------------|5555555--77777777---|
                     |
guitar 2...          |
e|-------------------|---------------------------|
b|-------------------|---------------------------|
g|-------------------|99999999-1212121212121212--|
d|-------------------|77777777-1010101010101010--|
a|-------------------|---------------------------|
E|-------------------|---------------------------|

guitar 1..
e|--------------------------------|
b|-----------------------------1--|
g|--1010-101010-101010-101010--2--|
d|--1010-101010-101010-101010--2--|
a|---8-8--8-8-8--8-8-8--8-8-8--0--|
E|--------------------------------|

guitar 2..
e|--------------------------------------------------|
b|--------------------------------------------------|
g|--55-555-5-----------999999999--1212121212121212--|
d|-----------55-555-5--777777777--1010101010101010--|
a|--------------------------------------------------|
E|--------------------------------------------------|

verse 2.. "sisindihan ko muna"

giutar 1... (4 times) C, G, Am
e|-------------------|
b|--------1----------|
g|--5-----2----------|
d|--5--5--2-----0----|
a|--3--5--0-0-2---2--|
E|-----3-------------|

guitar 2.. pag nag Am na..
e|--12--|
b|--13--|
g|--12--|
d|------|
a|------|
E|------|

"hindi na baleng di marinig.."
guitar 1.. (4 times)
e|--------------------|
b|-----------------1--|
g|--55-555-555-555-2--|
d|--55-555-555-555-2--|
a|--33-333-333-333-0--|
E|--------------------|

guitar 2.. (4 times) tapos sa part na.. "parang ganyan..." Am 4x
e|-----0---0---0---0------------|
b|---0---0---0---0---1-1-3-1-0--|
g|--5-5-5-5-5-5-5-5-2-2---------|
d|------------------------------|
a|------------------------------|
E|------------------------------|

guitar 1 & 2
4 times 1 strum ng chord Am..
guitar 1..effects = jet
guitar 2..effects = overdrive

tapos sa pang third time nung Am..
guitar 2.. effect = overdrive with delay
e|--15----12-----|
b|-----15----12--|
g|---------------|
d|---------------|
a|---------------|
E|---------------|

tapos after nung 4th...
guitar 2..
e|------------------------|
b|------------------------|
g|------------------------|
d|------------------9-10--|
a|----------9-10-12-------|
E|--9-10-12---------------|
then...
guitar 2.. (2 times)
e|-------------------------------------------------------------|
b|-------------------------------------------------------------|
g|--12--12--12--12--12--12--12--12---1414141414141414-99999999-|
d|----10--10--10--10--10--10--10--10---------------------------|
a|-------------------------------------------------------------|
E|-------------------------------------------------------------|

yung pang third nung guitar 2..
e|----------------------------------------------------------------------|
b|----------------------------------------------------------------------|
g|--12--12--12--12--12--12--12--12---1414141414141414-1616161616161616--|
d|----10--10--10--10--10--10--10--10------------------------------------|
a|----------------------------------------------------------------------|
E|----------------------------------------------------------------------|
then..
e|-----------------------------------------------------------|
b|-----------------------------------------------------------|
g|--17--17--17--17--17--17--17--17---21-21-21-21-21-17-16----|
d|----15--15--15--15--15--15--15--15----------------------17-|
a|-----------------------------------------------------------|
E|-----------------------------------------------------------|

guitar 1... (4 times)
e|--------------------|
b|-----------------1--|
g|--55-555-555-555-2--|
d|--55-555-555-555-2--|
a|--33-333-333-333-0--|
E|--------------------|

tapos ending.. C, B, G

sana magustuhan niyo.. 100% percent tama yan...
hahahaha:))

paki rate na lang po...

joshua_andres_23@yahoo.com ym..
Suggest correction
Give kudos to tab author, rate the tab!
1 2 3 4 5
comments
print report bad tab
guest
You may want to rate the tab now too:
select rating
Wanna post a correction for this tab? Suggest correction