Oops, an error
Loading. Please wait.

Gamu-Gamo Tab

version 2
version 2

Whole song

200 views 3 this week
3 commentsread comments
1 2 3 4 5
3 more votes to show rating
add to favorites
launch autoscroll
font size
0
reset
how to read this tab
guitar tuner
Autoscroll
slow
fast
+/-
esc
set tempo
stop
Help us to improve Ultimate-Guitar.com Take our survey!
×
Author
Difficulty
Tuning
novice
D A D G B E
Intro.
Drop D

pkinggan ang song pra m gts (D chord yan pg nka drop d)
e|------------------------|  
B|------------------------| 
G|------------------------|
D|------------------------|
A|------------------------|
E|--00-0--0-00--0-0-0-----|

e|---------------------------|
B|---------------------------|
G|---66666-------------------|
D|---66666-------------------|
A|---44444-------------------|
E|---------------------------|

4x ata
e|---------------------------|
B|---------------------------|
G|---------------------------|
D|--00-4--000-4--------------|
A|--00-4--000-4--------------|
E|--00-4^-000-4^-------------| 

e|---------------------------|
B|---------------------------|
G|---------------------------|
D|-0-2-4-2-0-----------------|
A|-0-2-4-2-0-----------------|
E|-0-2-4-2-0-----------------|

Solo
(D chord slide den blik kagad!)
e|---------------------------|
B|---------------------------|
G|---777/6\7-----------------|
D|---777/8\7-----------------|
A|---555/8\5-----------------|
E|---------------------------|

e|--------------------- ------|
B|--------------------- ------|
G|--------------------- ------|
D|-0-2-4-2-0----------- ------|
A|-0-2-4-2-0----------- --12~-|
E|-0-2-4-2-0----------- ------|

e|--------------------- ------|
B|--------------------- ------|
G|--------------------- ------|
D|-0-2-4-2-0----------- --11~-|
A|-0-2-4-2-0----------- ------|
E|-0-2-4-2-0----------- ------|

e|--------------------- ------|
B|--------------------- ------|
G|--------------------- ------|
D|-0-2-4-2-0----------- --13~-|
A|-0-2-4-2-0----------- ------|
E|-0-2-4-2-0----------- ------|

un muna!!
Suggest correction
Give kudos to tab author, rate the tab!
1 2 3 4 5
comments
print report bad tab
3 comments total.
0 reply
nicknotorius 31 Jul 28, 2006 06:01 AM

ung solo na d chord dagdagan nio n lng ng d chord

0 reply
Eemrach 30 Aug 09, 2006 01:04 AM

ei

0 reply
nicknotorius 31 Aug 09, 2006 03:37 AM

o?

guest
You may want to rate the tab now too:
select rating
Wanna post a correction for this tab? Suggest correction