Oops, an error
Loading. Please wait.

Gamu-Gamo Tab

version 3
version 3

Whole song

407 views 1 this week
no commentswrite comment
1 2 3 4 5
please rate
add to favorites
launch autoscroll
font size
0
reset
how to read this tab
guitar tuner
Autoscroll
slow
fast
+/-
esc
set tempo
stop
Help us to improve Ultimate-Guitar.com Take our survey!
×
Contributor
Dropped D tuning

Intro:

e|---------------------------------------------------------------|
B|---------------------------------------------------------------|
G|---------------------------------------------------------------| 
D|------------------66666666666666---------------6666666666666---|
A|------------------44444444444444---------------4444444444444---|
D|---00000000000000----------------0000000000000-----------------|

e|---------------------------|
B|---------------------------|
G|---------------------------|
D|-9999999999999999----------|
A|-7777777777777777----------|
D|---------------------------|
      
e|-------------------------------------------------------------|
B|-------------------------------------------------------------|
G|-------------------------------------------------------------|
D|-00-2h4--00-02h4--00-2h4--00-02h4--00-2h4--00-02h4--00-2h4r0-|
A|-00-2h4--00-02h4--00-2h4--00-02h4--00-2h4--00-02h4--00-2h4r0-|
D|-00-2h4--00-02h4--00-2h4--00-02h4--00-2h4--00-02h4--00-2h4r0-|

STANZA
e|--------------------------------------------|
B|--------------------------------------------|
G|--------------------------------------------|x2
D|--------777777777777-------66666666666------|  
A|--------555555555555-------44444444444------|
D|--------------------------------------------|
  "tulad mo isang gamu-gamo............."

CHORUS
e|-------------------------------------------------------|
B|-------------------------------------------------------|
G|-------------------------------------------------------|
D|-55555555-99999999-55555555-44444444-22222222-55555555-|
A|-55555555-99999999-55555555-44444444-22222222-55555555-|
D|-55555555-99999999-55555555-44444444-22222222-55555555-|
  "d'ka mapipigilan.........."

repeat stanza
repeat chorus

 refrain:
                        Guitar 1:
e|------------------|   |---------------------------------------------|
B|------------------|   |---------------------------------------------|
G|--777-777b9b7-----|x4 |-----------7^---------10b11b10-----------14b-|
D|--xxx-xxx---------|   |--00-2h4r0----00-2h4r0---------00-2h4r0------|
A|--555-555-5-5-----|   |--00-2h4r0----00-2h4r0---------00-2h4r0------|
D|------------------|   |--00-2h4r0----00-2h4r0---------00-2h4r0------|

                        Guitar 2:
                        |---------------------------------------------|
                        |-----------7-------------7b9b7-----------10b-|
                        |---------------------------------------------|
                        |--00-2h4r0----00-2h4r0---------00-2h4r0------|
                        |--00-2h4r0----00-2h4r0---------00-2h4r0------|
                        |--00-2h4r0----00-2h4r0---------00-2h4r0------|

e|-------------------|
B|-------------------|
G|-------------------|
D|-00-02h4--00-2h4r0-|
A|-00-02h4--00-2h4r0-|
D|-00-02h4--00-2h4r0-|

e|------------------|   |------------------|     |-------|
B|------------------|   |------------------|     |-------|
G|--777-777b9b7-----|   |--444-444-4b5-----|     |-------|
D|--xxx-xxx---------|2x |--xxx-xxx---------|2x   |-5-----|
A|--555-555-5-5-----|   |--222-222-2-2-----|     |-3-----|
D|------------------|   |------------------|     |-------|

"At kung pagbibi          gyan, ndi masasaktan"

solo: use chrome slide
e|--------------------|
B|-9s12s7s10s5s7~~~s3-|
G|--------------------|
D|--------------------|
A|--------------------|
D|--------------------|

rhythm during solo:

e|------------------------------------|
B|------------------------------------|
G|------------------------------------|
D|-444-47777-5555555-x3-444--777------| palm muted
A|-222-25555-5555555----444--777------|
D|-xxx-xxxxx-5555555----444--777------|

e|-------------------------------------------------------------|
B|-------------------------------------------------------------|
G|-------------------------------------------------------------|
D|-00-2h4--00-02h4--00-2h4--00-02h4--00-2h4--00-02h4--00-2h4r0-|
A|-00-2h4--00-02h4--00-2h4--00-02h4--00-2h4--00-02h4--00-2h4r0-|
D|-00-2h4--00-02h4--00-2h4--00-02h4--00-2h4--00-02h4--00-2h4r0-|

repeat chorus

outro:
e|-------------------------------------------------------------|
B|-------------------------------------------------------------|
G|-------------------------------------------------------------|
D|-00-2h4--00-02h4--00-2h4--00-02h4--00-2h4--00-02h4--00-2h4r0-|
A|-00-2h4--00-02h4--00-2h4--00-02h4--00-2h4--00-02h4--00-2h4r0-|
D|-00-2h4--00-02h4--00-2h4--00-02h4--00-2h4--00-02h4--00-2h4r0-|

pkisundan nlang sa cd...
kapa kapa lang ito pero mejo maganda na rin pkinggan...
pkirate nlang...

Suggest correction new What's this?
You can suggest a correction to this tab. Community and Mods will review your correction and vote to approve or reject it.
comments
We did not receive enough feedback on this tab! Please rate:
print report bad tab
1 2 3 4 5
guest
You may want to rate the tab now too:
select rating
Please do not post tabs as comments. Select "correction" instead!