Oops, an error
Loading. Please wait.

Nasaan Ka Tab

version 1
version 1

Whole song

Interactive

7,157 views 3 this week
15 commentsread comments
1 2 3 4 5
accurate
x 14
add to favorites
launch autoscroll
font size
0
reset
how to read this tab
guitar tuner
Autoscroll
slow
fast
+/-
esc
set tempo
stop
Help us to improve Ultimate-Guitar.com Take our survey!
×
Author
SONG: NASAAN KA
ARTIST: PUPIL
ALBUM: BEAUTIFUL MACHINES (TRACK 3)
MADE KAPA-KAPA BY: CIRE DELA ROSA NG MANYMORE BAND

---------------------------------------------------------
LEGEND:

. - PALM MUTED
h - HAMMER ON
/ - SLIDE

---------------------------------------------------------

VERSE:

<--BAHALA NA KAYO SA STRUMMING NITO-->

     . . . .  . . . .  . . . .
e||-----------------------------|----|
B||-----------------------------|    |
G||-----------------------------|    |____ 2x
D||--7-7-7-7--4-4-4-4--7-7-7-7--|    |
A||--5-5-5-5--4-4-4-4--7-7-7-7--|    |
E||-----------2-2-2-2--5-5-5-5--|----|

KANINANG UMAGA NAGISING AKONG MAY BAKAS NG NGITI SA MUKHA
KASAMA KITA SA AKING PANAGINIP SASABIHIN KO DAPAT SA'YO

CHORUS:

<--ITO YUNG CHORUS... DISTORTED SAKA HINDI PALM MUTED ANG PART NA ITO-->

e||-----------------------------|----|
B||-----------------------------|    |
G||-----------------------------|    |____ 2x
D||--7-7-7-7--4-4-4-4--7-7-7-7--|    |
A||--5-5-5-5--2-2-2-2--7-7-7-7--|    |
E||--------------------5-5-5-5--|----|

PERO/PAGKAT WALA KA NA
WALA KA NA PALA
WALA KA NA AHHH...


VERSE:


<--PAULIT-ULIT LANG HANGGANG CHORUS, YUNG GUITAR 2 GAWIN 
   LANG YUNG VERSE PERO HINDI PALM MUTED-->

e||--14-14----------------------|
B||---------15-15---------------|
G||----------------14-14-14-14--|
D||-----------------------------|
A||-----------------------------|
E||-----------------------------|

NANLILISIKN NAMIMILIPIT SA GALIT
UMIIKOT ANG AKING PANINGIN SA MGA TANONG NA DI KAYANG SAGUTIN
DI NA MAKIKITA DI NA MAHAWAKAN ANG MAGANDA MONG MUKHA


BRIDGE:

<--YUNG PINAKA-LAST NA ULIT, I-BREAK NINYO-->

e||-----------------------------|----|
B||-----------------------------|    |
G||-----------------------------|    |____ 3x
D||--5-5-5-5--2-2-2-2--7-7-7-7--|    |
A||--5-5-5-5--2-2-2-2--5-5-5-5--|    |
E||--3-3-3-3--------------------|----|


<--ITO YUNG LEAD KASABAY NUNG BRIDGE-->

e||-------------------------------|----|
B||--5-5--------------------------|    |
G||-------7-7---------------------|    |____ 2x
D||------------7-7-5-5-5-5-5-5-5--|    |
A||----------------5-5-5-5-5-5-5--|    |
E||-------------------------------|----|

NASAAN KA, NASAAN KA
NAWALA NANG PARANG BULA



<--PAGKATAPOS I-BREAK YUNG LAST CHORD SA BRIDGE, ITO YUNG LEAD-->

e||---------------------|----|
B||-----------------33--|    |
G||-------2-2-----------|    |____ 4x
D||--0-0-------0-0------|    |
A||---------------------|    |
E||---------------------|----|


<--PAGKATAPOS NITO I-BREAK, TAPOS NITO PAPASOK YUNG DRUMS-->

e||-----------------------------------|
B||-----------------------------------|
G||--7-6-7-6-7-6-7-6-7-6-7-7-7-7-7-7--|
D||----------------------7-7-7-7-7-7--|
A||-----------------------------------|
E||-----------------------------------|





<--KASABAY ITO NUNG PART NA KUMAKANTA NA, ACTUALLY ORGAN YATA YUN E...
   PAGKATAPOS NITO MAGPA-PLUCKING YUNG GUITAR 2 SA CHORD NA D AT Dsus
   NANG MABAGAL KASABAY NG FILL IN SA BABA-->

e||-----12-14-------12-14-----------|
B||--10-------10-10-------10--------|
G||--------------------------12-11--|
D||---------------------------------|
A||---------------------------------|
E||---------------------------------|

WALA KA NA
WALA KA NA PALA
WALA KA NA AHH...

e||--10-10-9-9-12-12----------|
B||------------------10-10/7--|
G||---------------------------|
D||---------------------------|
A||---------------------------|
E||---------------------------|


<--PAGKATAPOS NUNG PLUCKING ITO NAMAN-->

e||--2h3-2------------|--2h3-2--------------|----|
B||--------3-----3-3--|--------3-----3-3----|    |
G||----------2-2------|----------2-2-----2--|    |____ 2x
D||-------------------|---------------------|    |
A||-------------------|---------------------|    |
E||-------------------|---------------------|----|

MAHAHANAP DIN KITA
MAHAHANAP DIN KITA

<--THEN-->

e||--14h15-14-----------------|--14h15-14--------------------|----|
B||-----------15-------15-15--|-----------15-------15-15-----|    |
G||--------------14-14--------|--------------14-14-------14--|    |____ 2x
D||---------------------------|------------------------------|    |
A||---------------------------|------------------------------|    |
E||---------------------------|------------------------------|----|

MAHAHANAP DIN KITA AHH.. (KUNG MAY LANGIT NGA BA)
MAHAHANAP DIN KITA


<--TAPOS-->

e||--14h15-14-17-14--|----|
B||------------------|    |
G||------------------|    |____ 3x
D||------------------|    |
A||------------------|    |
E||------------------|----|

MAHAHANAP DIN KITA


<--ULITIN LANG HANGGANG MATAPOS-->

e||--14h15-14-19-15--|
B||------------------|
G||------------------|
D||------------------|
A||------------------|
E||------------------|

MAHAHANAP DIN KITA AHH... 


<--END OF THE SONG-->

---------------------------------------------------------
---------------------------------------------------------

PAKIRATE NAMAN ANG TAB NA-ITO FOR THE SAKE OF ITS ALMOST-PERFECTION

ANG MANYMORE BAND AY SINA:

JEFFREY DEYTO (LEAD VOCALS)
JOHN ERIC DELA ROSA (BASS)
JASON (SORRY NAKALIMUTAN KO YUNG APELYIDO/RHYTHM GUITAR/BAGONG MIYEMBRO)
CIRE DELA ROSA (LEAD GUITAR/BACK-UP VOCALS)
ERIC SPARTACUS ROYO (DRUMS)
Suggest correction new What's this?
You can suggest a correction to this tab. Community and Mods will review your correction and vote to approve or reject it.
comments
print report bad tab
15 comments total. Showing first comments.
0 reply
crimson_FR 20 wrote on March 20 2006, 03:11 am

dam..bat wlang nag rate ng tab n2.. wla din nag lalagay ng comments .. asteg nga 2 e.. btw.. nice tab.. asteg.. hehe.. go pupils !! \m/

0 reply
brent_nadurata 469 wrote on March 25 2006, 02:05 am

nice tab... 101%

0 reply
xionz802 158 wrote on April 3 2006, 07:37 pm

gud gud =)

guest
You may want to rate the tab now too:
select rating
Please do not post tabs as comments. Select "correction" instead!