Oops, an error
Loading. Please wait.

Nasaan Ka Tab

version 2
version 2

Whole song

Interactive

1,716 views 3 this week
4 commentsread comments
1 2 3 4 5
1 last vote to show rating
add to favorites
launch autoscroll
font size
0
reset
how to read this tab
guitar tuner
Autoscroll
slow
fast
+/-
esc
set tempo
stop
Help us to improve Ultimate-Guitar.com Take our survey!
×
Author
Difficulty
Tuning
intermediate
D A D G B E
nasaan ka
by: pupil
tabbed out by: john rome dela rosa
Tuning: Drop D

intro: palm mute niyo


e||---------------------------------------------|----|
B||---------------------------------------------|    |
G||---------------------------------------------|    |____ 2x
D||---------------------------------------------|    |
A||-0-0-0-0-0-0--4-4-4-4-4-4--7-7-7-7-7-7-------|    |
E||-0-0-0-0-0-0--4-4-4-4-4-4--7-7-7-7-7-7-------|----|

  kaninag umaga nagising akong may bakas ng ngiti sa mukha
  kasama kita sa aking panaginip sasabihin ko dapat sa'yo

chorus: distorted..medyo light lang distortion..wag gaano maingay

e||------------------------------------------------------|----|
B||------------------------------------------------------|    |
G||-------------------------------------------6-6-6-6-6-6|    |____ 2x
D||-------------------------------------------4-4-4-4-4-4|    |
A||-0-0-0-0-0-0--4-4-4-4-4-4--7-7-7-7-7-7----------------|    |
E||-0-0-0-0-0-0--4-4-4-4-4-4--7-7-7-7-7-7----------------|----|

verse: with drums

*ung rhythm gawin ung intro with palm mute
*ung lead gawin ito: kung pwede lagyan ung effects clean+reverb keo na mag timpla

e||--14-14----------------------|
B||---------15-15---------------|
G||----------------14-14-14-14--|
D||-----------------------------|
A||-----------------------------|
E||-----------------------------|

chorus ulit:
e||------------------------------------------------------|----|
B||------------------------------------------------------|    |
G||-------------------------------------------6-6-6-6-6-6|    |____ 2x
D||-------------------------------------------4-4-4-4-4-4|    |
A||-0-0-0-0-0-0--4-4-4-4-4-4--7-7-7-7-7-7----------------|    |
E||-0-0-0-0-0-0--4-4-4-4-4-4--7-7-7-7-7-7----------------|----|

Bridge:figure out the strumming

e||---------------------------------------------|
B||---------------------------------------------|
G||---------------------------------------------|
D||---------------------------------------------|
A||--5-5-5-5--2-2-2-2--0-0-0-0------------------|
E||--5-5-5-5--2-2-2-2--0-0-0-0------------------|

NASAAN KA? * ung strumming nito bilisan lang nang onti,isabay sa na-san-ka

e||---------------------------------------------|
B||---------------------------------------------|
G||---------------------------------------------|
D||---------------------------------------------|
A||-10-10-10-10-10-10--9-9-9-9-9-9--0-0-0-0-0-0-|
E||-10-10-10-10-10-10--9-9-9-9-9-9--0-0-0-0-0-0-|
    |_______________|  |_________|  |_________|
           |                |            |
          NA               SAN           KA

e||-----------------------------------|
B||-----------------------------------|
G||-----------------------------------|
D||-----------------------------------|
A||-10-10-10-10-10-10--9-9-9-9-9-9----|
E||-10-10-10-10-10-10--9-9-9-9-9-9----|
    |_______________|  |_________|
          |                 |
      nawala ng           parang.. bula


e||---------------------|----|
B||---------------------|    |
G||-----00-----77-------|    |____ 4x
D||---------------------|    |
A||--55----55-----------|    |
E||---------------------|----|

e||----------|----|
B||----------|    |
G||--5/4-----|    |____ 8x (?)
D||----------|    |
A||--5/4-----|    |
E||----------|----|

 *octave po gagamitin dito
e||----------|----|
B||----------|    |
G||---9------|    |____ 10x (?)
D||----------|    |
A||---5------|    |
E||----------|----|

dito na ung part ng drums flute ata ung effect dito nang guitar (lahat ng effects clean lang)

e||-----12-14-------12-14-----------|
B||--10-------10-10-------10--------|
G||--------------------------12-11--|
D||---------------------------------|
A||---------------------------------|
E||---------------------------------|

wala ka na
wala ka na pala
wala ka na
haaa..

e||--10-10-9-9-12-12----------|
B||------------------10-10/7--|
G||---------------------------|
D||---------------------------|
A||---------------------------|
E||---------------------------|

then ito ung plucking

e||-----------------------------|
B||----------0------------------|
G||----0----0-0-----------------|___ 2x
D||---4----4--------------------|
A||--5----5---------------------|
E||-----------------------------|
 after plucking ito naman
e||--2h3-2------------|--2h3-2--------------|----|
B||--------3-----3-3--|--------3-----3-3----|    |
G||----------2-2------|----------2-2-----2--|    |____ 2x
D||-------------------|---------------------|    |
A||-------------------|---------------------|    |
E||-------------------|---------------------|----|

mahahanap din kita
mahahanap din kita

e||--14h15-14-----------------|--14h15-14--------------------|----|
B||-----------15-------15-15--|-----------15-------15-15-----|    |
G||--------------14-14--------|--------------14-14-------14--|    |____ 2x
D||---------------------------|------------------------------|    |
A||---------------------------|------------------------------|    |
E||---------------------------|------------------------------|----|

mahahanap din kita.. ( kung may langit pa )
mahahanap din kita

last chorus:

e||---------------------------------------------|----|
B||---------------------------------------------|    |
G||---------------------------------------------|    |____ 2x
D||---------------------------------------------|    |
A||-0-0-0-0-0-0--2-2-2-2-2-2--5-5-5-5-5-5-------|    |
E||-0-0-0-0-0-0--2-2-2-2-2-2--5-5-5-5-5-5-------|----|


BAGSAK DITO :

e||----------|
B||----------|
G||----------|
D||----------|
A||-0--------|
E||-0--------|

tapos narin sa wakas..i would like to thank some of my resources for making this tab 
di pa gaano kompleto pero ok narin to. my 1st tab.

more power to salpicado band
john rome dela rosa (rhythm guitar)
vans villegas(lead guitar)
mikkel yap(bass guitar)
emmanuel garcia(drums)
aaron ugaban(vocals)

long live ely buendia..
Suggest correction
Give kudos to tab author, rate the tab!
1 2 3 4 5
comments
print report bad tab
4 comments total. Showing first comments.
0 reply
brent_nadurata 126 Mar 31, 2006 05:45 AM

naka Drop D b? bakit sa diagram ng tabs mo nakalagay E,, anu un?

0 reply
brent_nadurata 126 Apr 13, 2006 08:21 PM

aaaa gets ko na... galing mo bro

0 reply
brent_nadurata 126 Apr 16, 2006 05:39 AM

bro ok ung tab mo pero dun sa
e||--10-10-9-9-12-12----------|
B||------------------10-10/7--|
G||---------------------------|
D||---------------------------|
A||---------------------------|
E||---------------------------|

parang may kasunod pa dun eh tapos ung

e||--2h3-2------------|--2h3-2--------------|----|
B||--------3-----3-3--|--------3-----3-3----| |
G||----------2-2------|----------2-2-----2--| |____ 2x
D||-------------------|---------------------| |
A||-------------------|---------------------| |
E||-------------------|---------------------|----|

\_________________/
|
|
parang kulang 2 e

tapos ung ...

e||---------------------------------------------|
B||---------------------------------------------|
G||---------------------------------------------|
D||---------------------------------------------|
A||-10-10-10-10-10-10--9-9-9-9-9-9--0-0-0-0-0-0-|
E||-10-10-10-10-10-10--9-9-9-9-9-9--0-0-0-0-0-0-|
|_______________| |_________| |_________|
| | |
NA SAN KA

parang ang baba... pero astig talaga ung tab mo sau ko nakita ung 14-10-14 sa verse 2 ung ginagawa ni yan yuzon (ung gtarist)
hehe galing mo bro!! hehehe

guest
You may want to rate the tab now too:
select rating
Wanna post a correction for this tab? Suggest correction