Oops, an error
Loading. Please wait.

Nasaan Ka Chords

version 3
version 3

Whole song

Interactive

1,691 views 6 this week
1 commentread comment
1 2 3 4 5
please rate
add to favorites
launch autoscroll
font size
0
reset
transpose
0
reset
display chords
guitar tuner
Autoscroll
slow
fast
+/-
esc
set tempo
stop
Help us to improve Ultimate-Guitar.com Take our survey!
×
Difficulty
novice

Verse 1:

        D     A     Bm
 e|-----------------------|
 B|-----------------------|
 G|-----------------------|
 D|-----------------------|
 A|-----x-----x-----x-----|
 E|-----5-----7-----9-----|

D                Bm
kaninang umaga nagising ako
      A
may bakas ng ngiti sa mukha
D               Bm
kasama kita sa aking panaginip
    A
sasabihin ko dapat sa'yo pero


Chorus:
        D     A     Bm
 e|-----x-----x-----x------|
 B|-----x-----x-----x------|
 G|-----x-----x-----x------|
 D|-----7-----9-----11-----|
 A|-----7-----9-----11-----|
 E|-----5-----7-----9------|

   D     Bm
wala ka na
   D     Bm
wala ka na pala
   D     Bm   A
wala ka na aahh

Verse 2:

 e|------16-----11-----9-------| \
 B|----------------------------|  \
 G|----------------------------|  paulit ulit lng yan ...
 D|----------------------------|     w/ echo ...
 A|----------------------------|  /
 E|----------------------------| /

D             Bm            A
nag-iisip, namimilipit sa galit
  D            Bm
umiikot ang aking paningin
   A
sa mga tanong na di kayang sagutin
   D              Bm
di na makikita di na mahawakan 
    A
ang maganda mong mukha pagkat

(repeat chorus)

Gm- A      D  Gm- A      D 
    nasaan ka,    nasaan ka
    Gm         A        D (PAUSE)
    nawala nang parang bula

 e|-----------------------9-9--| \
 B|-----0-0---5-5---0-0--------|  \
 G|----------------------------| paulit ulit
 D|----------------------------|     lng toh ...
 A|----------------------------|  /
 E|----------------------------| /

(repeat chorus) <-- drums and piano only ...

D     Bm        A
 mahahanap din kita
D     Bm        A
 mahahanap din kita
D     Bm        A
 mahahanap din kita

(kung may langit nga ba)

D     Bm        A
 mahahanap din kita
D     Bm        A
 mahahanap din kita
D     Bm        A      D    
 mahahanap din kita aahh...

* hindi ko alam itatawag sa mga chords na yan eh, kaya D, A, Bm na lng ... hehe.
* sa mga verses, yung E string lang ang tatamaan niyo ...
Suggest correction
Give kudos to tab author, rate the tab!
1 2 3 4 5
comments
print report bad tab
1 comment total.
0 reply
brent_nadurata 134 wrote on April 16 2006, 05:43 am

bro ung sa verse 2 plucking...

e||--14-14----------------------|
B||---------15-15---------------|
G||----------------14-14-14-14--|
D||-----------------------------|
A||-----------------------------|
E||-----------------------------|

tapos ung pagkatapos ng "nawala lang parang bula"

e||---------------------|----|
B||---------------------| |
G||-----00-----77-------| |____ 4x
D||---------------------| |
A||--55----55-----------| |
E||---------------------|----|

yan lang nag comment lang ako hehehe

guest
You may want to rate the tab now too:
select rating
Please do not post tabs as comments. Select "correction" instead!