Oops, an error
Loading. Please wait.

Nasaan Ka Tab

version 4
version 4

Whole song

Interactive

779 views 1 this week
no commentswrite comment
1 2 3 4 5
please rate
add to favorites
launch autoscroll
font size
0
reset
how to read this tab
guitar tuner
Tab Pro tools
  • play this tab
  • loop segment
  • change instrument
  • show fretboard
  • metronome
×
Best way to learn
"Nasaan Ka"
Autoscroll
slow
fast
+/-
esc
set tempo
stop
Contributor
Difficulty
intermediate
#----------------------------------PLEASE NOTE--------------------------------#
#This file is the author's own work and represents their interpretation of the#
#song. You may only use this file for private study, scholarship, or research.#
#-----------------------------------------------------------------------------#

Author/Artist: Pupil/Diane Ventura/Ely Buendia
Title: Nasaan Ka?
Album: Beautiful Machines
Transcribed by: Leo Angelo Brunio


===================================
=UPDATED VERSION January 2011=
===================================

ABZD band you Rock!
tnx GOD for the talent :)

*bili kau ng Beautiful Machines na cd para mas madali maintindihan
ung chord progression...
*just list to the song para mas madali...
*thanks to the ABZD band, Chico, Spider, Sky, Sylvester, Mharczee
 Case, Zenki, Marrianne, Marlon, Atetin and Astro

Guitar 1 - Rhythm
Guitar 2 - Lead


Tuning: Drop D (D A D G B e)


Verse1:
(Guitar1: Slight Overdrive)
-|-------------------------------------------------------------|
-|-------------------------------------------------------------|
-|-------------------------------------------------------------|
-|-------------------------------------------------------------|
-|--0-0-0-0-0-0-0--4-4-4-4-4-4-4--7-7-7-7-7-7-7-7-7-7-7-7-7-7--|
-|--0-0-0-0-0-0-0--4-4-4-4-4-4-4--7-7-7-7-7-7-7-7-7-7-7-7-7-7--|

Verse2:
(Guitar1: do Rhytm chords)
(Guitar2: Lead banduria style of strumming)
-|--14-14-------------------\
-|--------15-15------------- \
-|--------------14-14-14----  \ repeat throughout Verse2
-|--------------------------  /
-|-------------------------- /  
-|--------------------------/

                                                                    

Chorus:
(Guitar1: Medium to Heavy Overdrive)
-|-------------------------------------------------------------|
-|-------------------------------------------------------------|
-|--------------------------------------------7-7-7-7-7-7-7-7--|
-|--------------------------------------------7-7-7-7-7-7-7-7--|
-|--0-0-0-0-0-0-0--4-4-4-4-4-4-4--7-7-7-7-7-7-7-7-7-7-7-7-7-7--|
-|--0-0-0-0-0-0-0--4-4-4-4-4-4-4--7-7-7-7-7-7-7-7-7-7-7-7-7-7--|
                                                                              

Bridge:
(guitar1: Medium Overdrive)
-|-------------------------------------------------------------|
-|-------------------------------------------------------------|
-|-------------------------------------------------------------|
-|-------------------------------------------------------------|
-|--5-5-5-5-5-5-5--2-2-2-2-2-2-2--0-0-0-0-0-0-0-0-0-0-0-0-0-0--|
-|--5-5-5-5-5-5-5--2-2-2-2-2-2-2--0-0-0-0-0-0-0-0-0-0-0-0-0-0--|
    Nasaan Ka?                                                                    

      


-|--------------------------------------3-3-3-3-/-14-14-14-14------------|----|
-|--5-5---------------------------------2-2-2-2-/-15-15-15-15------------|----|
-|------5-5----------4--4--4--4--4--4---3-3-3-3-/-14-14-14-14------------|----|
-|----------5-5------4--4--4--4--4--4------------------------------------|----|
-|--------------3-3--2--2--2--2--2--2------------------------------------|----|
-|-----------------------------------------------------------------------|----|   

 
	Nasaan Ka?
-|----------------------------------------------------------------------------|
-|----------------------------------------------------------------------------|
-|--5-5-5-5-5-5--4-4-4-4-4-4--------------------------------------------------|
-|--5-5-5-5-5-5--4-4-4-4-4-4--------------------------------------------------|
-|--3-3-3-3-3-3--2-2-2-2-2-2--0-0---------------------------------------------|
-|----------------------------0-0---------------------------------------------|
        Nawala lang parang bula......                                             

                    

-|------------------------------------------------------------------|
-|--------------3-3------------3-3-------------3-3-------------3-3--|
-|------0-0-------------0-0------------0-0-------------0-0----------|
-|--0-0-----0-0-----0-0-----0-0----0-0-----0-0-----0-0-----0-0------|
-|------------------------------------------------------------------|
-|------------------------------------------------------------------|
                                                                              

-|----------------------------------------------------------------------------|
-|--3--2--3--2--3--2--3--2--3--2----------------------------------------------|
-|--2--2--2--2--2--2--2--2--2--2---2--2--2--2--2--2--2--2--2------------------|
-|----------------------------------------------------------------------------|
-|----------------------------------------------------------------------------|
-|----------------------------------------------------------------------------|
                                                                              

-|----------------------------------------------------------------------------|
-|-----------------------------------3--3--3--3--3--3--3--3--3--3-------------|
-|--2--2--2--2--2--2--2--2--2--2--2--2--2--2--2--2--2--2--2--2--2-------------|
-|--2--2--2--2--2--2--2--2--2--2--2--2--2--2--2--2--2--2--2--2--2-------------|
-|-----------------------------------0--0--0--0--0--0--0--0--0--0-------------|
-|----------------------------------------------------------------------------|

================
=DRUM SOLO PART=
================
Piano Riff
-|------12----14--------------12----14-----------------|----------------------|
-|--10------------10------10------------10-------------|----------------------|
-|------------------------------------------12--11-----|----------------------|
-|-----------------------------------------------------|----------------------|
-|-----------------------------------------------------|----------------------|
-|-----------------------------------------------------|----------------------|
          Wala kana, wala kana pala                                               

                     

-|-------12----14--15--14--12--10----------------------|----------------------|
-|---10----------------------------10~~~~--------------|----------------------|
-|-----------------------------------------------------|----------------------|
-|-----------------------------------------------------|----------------------|
-|-----------------------------------------------------|----------------------|
-|-----------------------------------------------------|----------------------|
           	Wala kana......                                                   

                


(Guitar1: Slight Overdrive/Chorus/Reverb)                                         

          
-|------------|----------------------\
-|------------|-----------0---------- \
-|--------0~--|---------0---0~-------  \ 2x
-|----4-------|-----4----------------  /
-|--5---5-----|---5---5-------------- / 
-|------------|----------------------/

-|--2--------- \
-|--3---------  \
-|--2---------   \ Let Ring
-|--0---------   /
-|------------  /
-|------------ /


(Guitar2: Lead)
-|--10-10-10--9-9-9--12-12-12----------------------------------------|--------|
-|-----------------------------10-10-10-10-10-10---7-7-7-8----\------|--------|
-|-------------------------------------------------------------------|--------|
-|-------------------------------------------------------------------|--------|
-|-------------------------------------------------------------------|--------|
-|-------------------------------------------------------------------|--------|
                                                                              


Outro:


(Guitar2: Lead)
-|--2h3p2---------------2h3p2-----------------\
-|--------3-------3-3----------3-------3-3---- \
-|----------2-2h4----------------2-2h4--------  \ 2x
-|--------------------------------------------  /
-|-------------------------------------------- / 
-|--------------------------------------------/
          Mahahanap din kita......                                                

                    

-|--14h15p14----------------------14h15p14----------------------|
-|-----------15----------15-15--------------15----------15--15--|
-|--------------14-14h16-----------------------14-14h16---------|
-|--------------------------------------------------------------|
-|--------------------------------------------------------------|
-|--------------------------------------------------------------|
	Mahahanap din kita.....

-|-----------------------------------------------------------------14-14-14---|
-|--------------------15-15-15-15-------------15-15-15----15----15-15-15-15---|
-|--14-14-14-14-14-14-------------14-14-14-14----------14----14----14-14-14---|
-|----------------------------------------------------------------------------|
-|----------------------------------------------------------------------------|
-|----------------------------------------------------------------------------|
		Mahahanap din kita...................


(Guitar2: Outro lead riff/piano thingy)

-|-----------17-------------------17------------------19-----------------19---|
-|-----15-------15----------15-------15---------15-------15--------15---------|
-|--14----14-------14----14----14-------14---14----14-------14--14----14------|
-|----------------------------------------------------------------------------|
-|----------------------------------------------------------------------------|
-|----------------------------------------------------------------------------|
                                                                             
-------------\
-15---------- \
----14-------  \  END.
-------------  /
------------- /
-------------/


(Guitar1: Rhythm)
-|-----------------------------------------------------------------------\
-|----------------------------------------------------------------------- \
-|-----------------------------------------------------------------------  \ 6x
-|-----------------------------------------------------------------------  /
-|--0--0--0--0--0--0--0--2--2--2--2--2--2--2--5--5--5--5--5--5--5--5--5-- /  
-|--0--0--0--0--0--0--0--2--2--2--2--2--2--2--5--5--5--5--5--5--5--5--5--/   
	Mahahanap din kita.....						      
-|------
-|------ 
-|------    END. Let Ring out
-|--0~--
-|--0~-- 
-|--0~--


Legend:
	~ - let ring
	h - hammer on
	p - pull off


END.
comments
We did not receive enough feedback on this tab! Please rate:
print report bad tab
1 2 3 4 5
I want to post or [tab]
guest
You may want to rate the tab now too:
select rating
Please do not post tabs as comments. Select "correction" instead!