Oops, an error
Loading. Please wait.

Sala Tab

version 1
version 1

Whole song

2,416 views 1 this week
no commentswrite comment
1 2 3 4 5
please rate
add to favorites
launch autoscroll
font size
0
reset
how to read this tab
guitar tuner
Autoscroll
slow
fast
+/-
esc
set tempo
stop
Help us to improve Ultimate-Guitar.com Take our survey!
×
Author
Song:Sala
Album:Wild Life
Artist:Pupil
Date Tabbed:October,2007
Guitar Tabber:Ryan Manongdo/17/m/Montalban Rizal
              no_falter0x@yahoo.com(Friendster&YM)

For your questions or suggestions,just post a comment mail,or PM me.

Listen carefully for the timing specially in gtr.1 

This is my Last tabhere in the Philippines....Hope you like it!! 

Gtr.Legends:
. - palm muting
x - dead string
~ - le it ring

Gtr.Tuning:Standard(Normal)

Intro:
e|-----------------------------------|
B|-----------------------------------|
G|-----------------------------------|
D|-55--88--------1010--------77------|
A|-33--66--88-----8-8--1010--55-66---|
E|---------66-----------8-8-----44---|
   ..  ..  ..     . .   . .  .. ..

Gtr.1
e|-------------------------------------------|
B|-------------------------------------------|
G|-------------------------------------------|
D|-1010--------88-------1010--------77-------|
A|--8-8--1010--66--88----8-8--1010--55--66---|
E|--------8-8------66----------8-8------44---|
    . .   . .  ..  ..    . .   . .  ..  ..

Gtr.2
e|---------------------------------------------8~---|
B|-------88--1010--88-6----------88--1010--88--6~---|
G|-1010--------------------1010---------------------|
D|--------------------------------------------------|
A|--------------------------------------------------|
E|--------------------------------------------------|

Verse 1:Tara na' tumawa....
Gtr.2
e|----------------------|
B|----------------------|
G|-11------11------13---| Repeat Many Times and Get the Timing...
D|----1111----1111-11---|  
A|----------------------| (11-13)
E|----------------------|

Gtr.1 Enters:Dito tayo'y....
e|----------------|
B|----------------|
G|----------------|
D|-4~---4~---4~---|
A|-2~---4~---2~---|
E|------2~--------|

Chorus:Iisa lang ang iyong...
Gtr.1
e|------------------------------------------------|
B|---------111111-10101010-----------1313-11111---|
G|-1111111-111111-11111111---1111111-1111-11111---| 2x
D|-1111111-------------------1111111--------------|
A|------------------------------------------------|
E|------------------------------------------------|

Gtr.2
e|----------------------------------|
B|----------------------------------|
G|-------444-3333--------666-4444---| 2x
D|-444444----------44444------------|
A|----------------------------------|
E|----------------------------------|

Verse 2:Sariwain ang kaalaman...
e|------------|
B|------11~---|
G|-11~--11~---| 3x
D|-11~---9~---|
A|--9~--------|
E|------------|

Walang makakapigil...
e|-------------------------------------|
B|-------------------------------------|
G|-8-8-8-8-8-8-8-8-8--11-11-11-11-11---| 2x
D|-8-8-8-8-8-8-8-8-8--11-11-11-11-11---|
A|-6-6-6-6-6-6-6-6-6---9--9--9--9--9---|
E|-------------------------------------|
   . . . . . . . . .   .  .  .  .  .

Repeat Chorus:

Bridge prt.1:Halina' pakinggan...
Play Intro

Bridge prt.2:Kinabukasan nakasalalay...
Gtr.1
e|------------------------------------------------|
B|------------------------------------------------|
G|-1111111111------------------------1111111111---|
D|-1111111111--1111111111--13131313--1111111111---| 4x
A|--9-9-9-9-9--1111111111--13131313---9-9-9-9-9---|
E|--------------9-9-9-9-9--11111111---------------|

Gtr.2 Enters(Instrumental)
e|----------77-66-9999---|
B|-1010--88--------------|
G|-----------------------| 4x
D|-----------------------|
A|-----------------------|
E|-----------------------|

Afer Bass,
Gtr.2 Enters:Isa lang ang iyong mundo....
Play Chorus

Repeat Chorus:

Outro(Instrumental):
e|------------------------------------------------------------------|
B|---------------------11111-101010------------------------101010---|
G|-11111-101010-131313-11111-111111---111111-101010-131313-111111---| Repeat some of this part...
D|-11111-111111-111111----------------111111-111111-111111----------|
A|------------------------------------------------------------------|
E|------------------------------------------------------------------|

e|-9999999999999999999999--9~--------|
B|-0000000000000000000000------------|
G|-1111111111111111111111------11~---|
D|-1111111111111111111111------------|
A|-----------------------------------|
E|-----------------------------------|

End..


Sala Lyrics:

Verse 1:
Tara na't tumawa
Sa mundong pundo ng sala
Dito tayo'y pantay pantay
Tingnan mo'ng hawak sa'king kamay

Chorus:
Iisa lang ang iyong mundo
Wag mong tatapusin
Tawag ka't nandyan na ako
Sinong pipiliin

Verse 2:
Sariwain ang kaalaman
Kabutihan at paninindigan
Lahat ay may katapusan
Walang makakapigil sa'tin
Malayang ihahayag ang damdamin
Walang makakapigil sa'tin
Malayang ihahayag ang damdamin

Repeat Chorus:

Bridge:
Halina't pakinggan
Pagkat katotohanan
Ang ipaglalaban

[Chorus 2]
Kinabukasan nakasalalay
Sa iyong kamay
Humanda ng matagpuan
Ang di mo na alam

Iisa ang iyong mundo

[Repeat Chorus 2]

Iisa ang iyong mundo
Suggest correction
What's this?
You can suggest a correction to this tab. Community and Mods will review your correction and vote to approve or reject it.
comments
We did not receive enough feedback on this tab! Please rate:
print report bad tab
1 2 3 4 5
guest
You may want to rate the tab now too:
select rating
Please do not post tabs as comments. Select "correction" instead!