Oops, an error
Loading. Please wait.

Set Me Apart bass

version 1
version 1

Whole song

Interactive

by Pupil
224 views 1 this week
1 commentread comment
1 2 3 4 5
2 more votes to show rating
add to favorites
×
Save as Personal and add changes to this tab that will be seen only by you. Learn more ›
×
You can save this tab as Personal to edit and correct it or add notes. All changes will be seen only by you. Learn more »
launch autoscroll
font size
0
reset
guitar tuner
edit
Autoscroll
slow
fast
+/-
esc
set tempo
stop
Difficulty
artist:pupil
album:wildlife
song:set me apart


intro:
   G|--------------------|
   D|--------------------|
   A|--------------------| (4x)
   E|--5--5--5~----------|

verse 1:
   G|--------------------|              |--------|
   D|--------------------|              |--------|
   A|------33--55555-----| (2x) then... |--------|(break)
   E|--55----------------|              |--55----|

refrain:
   G|--------------------|
   D|--------------------|
   A|--0000--3333--7777--| (2x)
   E|--------------------|

chorus:
   G|------------------------------|
   D|------------------------------|
   A|------------33333--777777-----| (4x)
   E|--55555555--------------------|

fill:
   G|-----------------------------------|
   D|-----------------------------------|
   A|-----------------------------------| (2x)
   E|--555--3--3--555--3--3--55--33-----|

solo 1:
   G|-------------------------|
   D|-------------------------|
   A|----------55555555-------| (2x)
   E|--55--33-----------------|

repeat refrain
repeat chorus
repeat intro

bridge 1:
   G|--------------------------------------------|
   D|--------------------------------------------|
   A|--33--5----------------33333--55555--77777--|
   E|---------55555--77777-----------------------|

bridge 2:
   G|------------------------|
   D|------------------------|
   A|------------------------| (4x)
   E|--5~--5--5--5~----------|

repeat bridge 2

fill:
   G|-----------------|
   D|-----------------|
   A|-----------------| (4x)
   E|--5--5--5~-------|

solo 2:
   G|-------------------------|
   D|-------------------------|
   A|---------33333--77777----| (4x)
   E|--55555------------------|

outro:
   G|-------------------------|
   D|-------------------------|
   A|---------33333--77777----| (2x)
   E|--55555------------------|

fill:
   G|-------------------------|
   D|-------------------------|
   A|-------------------------|(2x)
   E|--555-3-3-555-3-3-5-5-33-|

____________________________________________________________________________

LYRICS:

verse 1
   Don't get lost
   Stay on track
   Win or lose
   I've got your back

   State your name
   Roger that
   Leave a message
   Don't self-destruct

refrain
   Set us free
   Let me be
   Set me free
   Let us be

chorus
   No one can stop us now
   No matter where or how
   I'll make a change
   This is my time
   That's where i'm going to the top
   The cream of the crop,yeah!yeah!
   I'm gonna be,all i can be
   Set me apart

repeat refrain
repeat chorus

bridge
   Animax,my sanctuary
   A place to be free
   A place to see
   A place to be...me

bridge 2
   In this otherwordly place
   No need to change your face
   And i won't hesitate
   To seek my mystic fate (2x)

solo 2
   (I'll make a change)
   (This is my time)
   (I'm gonna be,all i can be)
   (Set me apart)

outro
   I'm gonna be,all i can be
   Set me apart
   I'm gonna be,all i can be
   Set me apart

____________________________________________________________________________

   uhhh...ito'y bass tab na kapa ko para sa set me apart ng pupil..
sana magustuhan ng kung sino man ang titingin ng tab na ito...pakinggan
niyo na lang ung song para sa timing..pero madali lang makuha timing nito
para dun sa mga kabisado ung song...tama naman siguro itong tab na ito..
pero kung may alam kayong mas tama..,mag submit na kayo nag tab!
____________________________________________________________________________

   un na lang...
Mabuhay Philippines!XD

            
            
Suggest correction
Creating personal tab
Creating personal tab
You can edit any tab online and save it as your Personal.

You can edit, replace or remove any tab part or add personal notes – all changes will be seen only by you.

Personal tabs can be accessed anytime from any device, even offline.
Learn more »
Give kudos to tab author, rate the tab!
1 2 3 4 5
comments
print report bad tab
1 comment total.
0 reply
deadstring_3000 634 Nov 14, 2007 06:22 PM

Hey everybody..pls rate my tab!

guest
Wanna post a correction for this tab? Suggest correction