Oops, an error
Loading. Please wait.

Set Me Apart Tab

version 1
version 1

Whole song

Interactive

596 views 1 this week
2 commentsread comments
1 2 3 4 5
please rate
add to favorites
launch autoscroll
font size
0
reset
how to read this tab
guitar tuner
Autoscroll
slow
fast
+/-
esc
set tempo
stop
Help us to improve Ultimate-Guitar.com Take our survey!
×
Author
Song:Set Me Apart
Sound Track:Animax
Artist:Pupil
Date Tabbed:May,2007
Guitar Tabber:Ryan Manongdo/17/m/Montalban Rizal
              no_falter0x@yahoo.com(Friendster&YM)
              
For your questions or suggestions,just post in friendster comment,PM or mail me.

Gtr.Legends:
/ - slide
p - pull-off
h - hammer-on 
x - dead string
~ - let it ring
. - palm muting

Gtr.Tuning:Standard(Normal)

Intro:
Gtr.1
e|----------|
B|----------|
G|----------| 3x
D|-7-7-7~---|
A|-7-7-7~---|
E|-5-5-5~---|
   . . .

Gtr.2
e|-8-8-8~---|
B|-8-8-8~---|
G|----------| 3x
D|----------|
A|----------|
E|----------|
   . . .

Verse:Don't get lost...
Gtr.1
e|------------------------|
B|------------------------|
G|------------------------| 2x
D|-77---55---7777777777---|
A|-77---33---5555555555---|
E|-55---------------------|
   ..   .. 

Gtr.2
e|---------------------555-888---|
B|------------888-777------------|
G|-------------------------------| 2x
D|-77---55-----------------------|
A|-77---33-----------------------|
E|-55----------------------------|
   ..   ..

Pre-Chorus:Set us free...
Gtr.1
e|-------------------------------------------------------|
B|-------------------------------------------------------|
G|-------------99-101010-9999-----------99-101010-9999---| 
D|-77----------xx--x-x-x-xxxx-----------xx--x-x-x-xxxx---|
A|-77--777777--77--8-8-8-7777---777777--77--8-8-8-7777---|
E|-55--555555-------------------555555-------------------|
   ..  ......  

Gtr.2
e|---------------------------------------------------------------------|
B|---------------------------------------------------------------------|
G|---------------------------------------------------------------------|
D|-77------------------------------------------------------------------|
A|-77------------------------------------------------------------------|
E|-55--5555-7777-8888-1010-1212121212---5555-7777-8888-1010-12121212---|
   ..

Chorus:No one can stop us...
e|---------------------------------------------------------------------------|
B|---------------------------------------------------------------------------|
G|---------------------------------------------------------------------------|
D|-77777-5555-9999---777777-5555-99999---77777-5555-4444---77777-5555-4444---|
A|-77777-3333-7777---777777-5555-77777---77777-5555-2222---77777-5555-2222---|
E|-55555-------------555555-3333---------55555-3333--------55555-3333--------|

After Chorus:
e|-----------      ------|
B|-----------      -0~---|
G|-----1212-- 6x   -0~---|
D|-77--xxxx-- Then ------|
A|-77--1010--      ------|
E|-55--------      ------|
   ..

Instrumentals:
Gtr.1
e|------------------------|
B|------------------------|
G|------------------------| 2x
D|-77---55---7777777777---|
A|-77---33---5555555555---|
E|-55---------------------|
   ..   .. 

Gtr.2
e|-8----------7-8----19-------------------|
B|---8----8-7-----------19----------------|
G|------5---------------------------------| 2x
D|-------------------------17-16----------|
A|-------------------------------16-14b---|
E|----------------------------------------|

Repeat Pre-Chorus:

Repeat Chorus:

Bridge:
Gtr.1
e|-8-8-8~---|
B|-8-8-8~---|
G|----------| Repeat Many Times
D|----------|
A|----------|
E|----------|
   . .
   
Gtr.2 Enters:Animax my sanctuary...
e|-15~--14-19-------------------19-----------------12*---|
B|------------17~------------------17--------------------|
G|---------------------12~-------------16-15~--16~-------|
D|-------------------------12~---------------------------|
A|-------------------------------------------------------|
E|-------------------------------------------------------|


Gtr.1:In this otherworldy...
Continue Playing

Then Pick Slide..

Before Outro Chorus:
Gtr.1
e|---------------------------------------------------------------------------|
B|---------------------------------------------------------------------------|
G|---------------------------------------------------------------------------|
D|-77777-5555-9999---777777-5555-99999---77777-5555-4444---77777-5555-4444---|
A|-77777-5555-7777---777777-3333-77777---77777-5555-2222---77777-5555-2222---|
E|-55555-3333--------555555--------------55555-3333--------55555-3333--------|

Gtr.2
e|---------------------------------8----------------------------------------------------------------------
B|-8-----8-----8-----8-----8---------8--------------------------------------------------------------------
G|---9-----9-----9-----9-----9----------10----121212-141414-----------------121212-141414-----------------
D|-----10----10----10----10----10---------------------------121212-141414-----------------121212-141414---
A|--------------------------------------------------------------------------------------------------------
E|--------------------------------------------------------------------------------------------------------

---------------------------------8------1010----------1010----------1010---------1010-12121212---|
-8-----8-----8-----8------10-8-----8---------88-1010-------88-1010-------88-1010-----------------|
---9-----9-----9-----9---------9-----9-----------------------------------------------------------|
-----10----10----10----10------------------------------------------------------------------------|
-------------------------------------------------------------------------------------------------|
-------------------------------------------------------------------------------------------------|

Outro Chorus:I'm gonna be...
Gtr.1
e|-------------------|
B|-------------------|
G|-------------------| 2x
D|-77777-5555-2222---|
A|-77777-5555-2222---|
E|-55555-3333-0000---|

Gtr.2
e|----------------------------------|
B|--------------------------88888---|
G|--------------------77777---------| 2x
D|-5h6-----5h6----5h6---------------|
A|-----6h7-----6h7------------------|
E|----------------------------------|

e|------------|
B|------------|
G|-----1212---|
D|-77--xxxx---|
A|-77--1010---|
E|-55---------|
   ..

End...


Set Me Apart Lyrics:

Verse 1:
dont get lost
stay on track
win or lose ive got your back
state your name
roger that
leave a message
dont self-destruct

Pre-Chorus:
set us free
let me be
set me free...let us be

Chorus:
no one can stop us now
no matter where or how
i'll make a change
this is my time
that's where i'm going
to the top
the cream of the crop
yeah yeah

i'm gonna be , all i can be
set me apart

Bridge:
animax my sanctuary
a place to be free
a place to see
a place to be me

in this otherworldly place
no need to change your face
and i wont hesitate to seek my mystic fate

i'll make a change
this is my time

Outro Chorus:
im gonna be all i can be...set me apart

Suggest correction
What's this?
You can suggest a correction to this tab. Community and Mods will review your correction and vote to approve or reject it.
comments
We did not receive enough feedback on this tab! Please rate:
print report bad tab
1 2 3 4 5
2 comments total.
0 reply
CallMeSlick 871 wrote on February 8 2008, 11:16 pm

sa tingin ko hindi lng basta2x power chord yung intro... it should be something like this.... C6 chord ata 'to


E||-------------------------|
B||--8--8--8--------8--8--8-|
G||--5--5--5--------5--5--5-|
D||--7--7--7--------7--7--7-|
A||--7--7--7--------7--7--7-|
E||--5--5--5--------5--5--5-|


or(kung sa higher frets)

E||-------------------------------|
B||--13--13--13--------13--13--13-|
G||--12--12--12--------12--12--12-|
D||--14--14--14--------14--14--14-|
A||--12--12--12--------12--12--12-|
E||-------------------------------|

0 reply
CallMeSlick 871 wrote on February 8 2008, 11:17 pm

gumagawa pala ako ng GP tab nito... medyo mahirap... baka matagal-tagal pa bago matapos...

guest
You may want to rate the tab now too:
select rating
Please do not post tabs as comments. Select "correction" instead!